Clash - Rebel Waltz Chords & Tabs

 

Rebel Waltz Chords & Tabs

Clash Chords & Tabs

Version: 1 Type: Bass Tab 0 ratings
1 star 2 stars 3 stars 4 stars 5 stars
comments

Rebel Waltz Bass Tab

Band: The Clash
Song: Rebel Waltz
Tabbed by: Daniel Rodriguez
E-mail: label1987@hotmail.com

the song is approximately 3:25 long, you start on 1:18 playing the bass
and you end at 2:32.

Riff 1
G|--------------------------|
D|--------------------------|
A|----6-5--6-5---5-6-7-8----|
E|--------------------------|

Riff 2
G|--------------------------|
D|--------------------------|
A|----6-5--6-5---8-7-6-5----|
E|--------------------------|
[ Tab from: http://www.guitartabs.cc/tabs/c/clash/rebel_waltz_btab.html ]
Riff 1
G|--------------------------|
D|--------------------------|
A|----6-5--6-5---5-6-7-8----|
E|--------------------------|

Riff 3
G|---------------(3x)-------|
D|------------------ -------|
A|--6--6-7--8-7-6--- -------|
E|------------------ -6-6-6-|

ORDER
riff 1
riff 2
riff 1
riff 3
riff 1
riff 2
riff 1
riff 3
riff 1
riff 2
riff 1
riff 3

if you have any questions or corrections e-mail me.enjoy!
Check out other tabs by me:
The Clash "I'm So Bored With The U.S.A."
The Clash "Police and Thieves"
Black Flag "Paralize"
Patty Smith "Till Victory"
Gang of Four "Love Like Anthrax"
Comments