Clash - Police And Thieves Chords & Tabs

 

Police And Thieves Chords & Tabs

Clash Chords & Tabs

Version: 1 Type: Tab 0 ratings
1 star 2 stars 3 stars 4 stars 5 stars
comments

Police And Thieves Tab

   
Artist:The Clash - Police And Thieves
Album:The Clash


This is The Way It Is Played By The Clash Live In The Rude Boy Film
Except The Solo Which Was Wrong On The Other Tab So I Figured It Out Myself


Notation
h=hammer on
p=pull off
d=down stroke
u=up stroke


INTRO

e|----------------------------------|
b|----------------------------------|
g|----5-7----5-7----5-7-12----------|
d|-5--5-7-5--5-7-5--5-7-12----------|
a|-5--3-5-5--3-5-5--3-5-10----------|
e|-3------3------3------------------|



Pre-Verse Lead


e|---------------------------------|
b|---------------------------------|
g|-12--12--12--12--14--14--14--14--|    X2 (Last Chord Is Vibrated
d|-12--12--12--12--14--14--14--14--|        And Faded) 
a|-10--10--10--10--12--12--12--12--|
e|---------------------------------|



Verse Rhythm 
  d u   d u
e|-0-0----0-0--|
b|-3-3----5-5--|
g|-0-0----0-0--|
d|-4-4----6-6--| 
a|-5-5----7-7--|
e|-5-5----7-7--|


(Played At All The Crowd Come In Part)
  d u    d u
e|-0-0----0-0--|
b|-6-6----5-5--|
g|-0-0----0-0--|
d|-7-7----6-6--|
a|-8-8----7-7--|
e|-8-8----7-7--|


(Hear What I Say Part)
e|-0-0-0-0-2-2-2-2-|
b|-1-1-1-1-3-3-3-3-|
g|-0-0-0-0-2-2-2-2-|
d|-2-2-2-2-0-0-0-0-|
a|-3-3-3-3-0-0-0-0-|
e|-3-3-3-3-0-0-0-0-|

[ Tab from: http://www.guitartabs.cc/tabs/c/clash/police_and_thieves_tab.html ]
Verse Lead
e|------------------------------------|  (Each Chord is Played After The
b|------------------------------------|   Rhythm And The Bassline)
g|-12-------------------14------------|     
d|-12-(1st Time)--------14--(2nd Time)| 
a|-10-------------------12------------|
e|------------------------------------|



(From Genesis To Revalation Part)
e|---------------------------------|
b|---------------------------------|
g|-12--12--12--12--14--14--14--14--|    X2
d|-12--12--12--12--14--14--14--14--|
a|-10--10--10--10--12--12--12--12--|
e|---------------------------------|



(Hear What I Say Part)
e|--------------------------|
b|--------------------------|
g|-12-12-12-12-14-14-14-14--|    
d|-12-12-12-12-14-14-14-14--|
a|-10-10-10-10-12-12-12-12--|
e|--------------------------|



Solo

e|--7-7-5-3-0-3-5----|--7-7-5-3-0----------------|
b|-3--------------3-5|-3----------3-5--3h5p3h5p3-|
g|-------------------|---------------------------|
d|-------------------|---------------------------|
a|-------------------|---------------------------|
e|-------------------|---------------------------|


e|---7-7-5-3-|---8-8-7-5--3-5-7-|-7-5---------------------|
b|-3---------|-3----------------|-----8-10---12---15---12-|
g|-----------|------------------|-------------------------|
d|-----------|------------------|-------------------------|
a|-----------|------------------|-------------------------|
e|-----------|------------------|-------------------------|




Listen To The Song For The Structure
Thats It
Rate It For Us Will You
Comments