Clash - Police And Thieves Chords & Tabs

 

Police And Thieves Chords & Tabs

Clash Chords & Tabs

Version: 5 Type: Bass Tab 0 ratings
1 star 2 stars 3 stars 4 stars 5 stars
comments

Police And Thieves Bass Tab

   
Title:  Police and theives
Artist: The Clash 
Instrument: 4 String Bass
Tuning: Standard (E A D G)



 
  Verse
G|----------------|----------------|2---------------|----------------||
D|5-2---2-5-------|-------2----5---|--5-2-----------|------------2---||
A|----5-----------|-----5----------|------5-2-------|------2-5-------||
E|----------------|----------------|----------------|----------------||x8
  G                G                Am               Am

[ Tab from: http://www.guitartabs.cc/tabs/c/clash/police_and_thieves_btab_ver_5.html ]
  Chorus
G|----------------|----------------|----------------|----------------||
D|----------------|------------2---|----------------|----------------||
A|2-------2-------|-----2-5--------|0-------0-------|--------0---0---||
E|----------------|----------------|----------------|----------------||x3
  B                B                A                A
G|----------------|----------------|----------------|----------------||
D|--------2-------|5------2--------|--------4-------|7-------4-------||
A|3---------------|----------------|5---------------|----------------||
E|----------------|----------------|----------------|----------------||x1
  C                C                D                D

intro
verse x8
chorus
verse x8
chorus
verse (repeat to the end)
Comments