Clash - Police And Thieves Chords & Tabs

 

Police And Thieves Chords & Tabs

Clash Chords & Tabs

Version: 4 Type: Bass Tab 0 ratings
1 star 2 stars 3 stars 4 stars 5 stars
comments

Police And Thieves Bass Tab

Band: The Clash
Song: Police and Thieves
Tabbed by: Daniel Rodriguez
E-mail: label1987@hotmail.com

Intro:
G|---------------| (3x)
D|---------------|
A|--2-2-2-3-4-5--|
E|---------------|

(After drum solo,start riff 1)

Riff 1:
G|-------------|--------|-----------| (16x)
D|-------------|--------|-----------|
A|--4-4-3-3-2--|--------|---4-5-6---|
E|-------------|--------|-----------|
[ Tab from: http://www.guitartabs.cc/tabs/c/clash/police_and_thieves_btab_ver_4.html ]
Riff 2:
G|---------|--------|---------------|
D|---------|--------|---------------|
A|---------|--------|---3-3-3-5-4---|
E|---5-5---|--------|---------------| (3x) then play....

G|-------------------|
D|-------------------|
A|--4-5-6-7-4-5-6-7--|
E|-------------------|

__ORDER__
Intro
Riff 1
Riff 2
Riff 1
Riff 2
Riff 1 & guitar solo 
( after the guitar solo play riff 1 until the song ends)

Of course THE CLASH is the best punk band in the world and,
if you have any questions or corrections write me at: label1987@hotmail.com
also check out other tabs I've made for The Clash " Im So Bored In The U.S.A." and Black Flag " Paralize".
Comments