Clash - One More Time Chords & Tabs

 

One More Time Chords & Tabs

Clash Chords & Tabs

Version: 1 Type: Bass Tab

One More Time Bass Tab

   
Tabbed By : davido bigda
e-mail: bigdada@punchmyvagina.com

Tuning: Standard (EDAG)

Intro
G|12-10-------|--------|12-10-------|--------|-------|-------|12-10----------|
D|------12-10-|--------|------12-10-|--------|-------|-------|------12-10----|
A|------------|7-5-7-5-|------------|7-5-7-5/|9-9-9-9|7-5-7-5|---------------|
E|------------|--------|------------|--------|-------|-------|---------------|
[ Tab from: http://www.guitartabs.cc/tabs/c/clash/one_more_time_btab.html ]
Verse/Chorus  play x2 each    Fill (Used mostly to replace the final 4 beats of verse)
G|------|------|------|------|12-10------------------------------------------|
D|------|------|------|------|-----12-10-------------------------------------|
A|79777-|57555-|57577-|79799-|-----------------------------------------------|
E|------|------|------|------|-----------------------------------------------|

"Lead In" (Played after every chorus)
G|-------|-------|------|-------|--------------------------------------------|
D|-------|-------|------|-------|--------------------------------------------|
A|5-7-77-|9-9-99-|7-7-77|5-5-75-|--------------------------------------------|
E|-------|-------|------|-------|--------------------------------------------|

Song Order:
Intro
Verse
Chorus
Lead In
(Same throughout rest of the song)

Each | to | equals one measure or 4 beats, I did this to help you a bit if you decide
to figure out this tune.

| /  slide up
| \  slide down
| h  hammer-on
| p  pull-off
| ~  vibrato