Clash - Lovers Rock Chords & Tabs

 

Lovers Rock Chords & Tabs

Clash Chords & Tabs

Version: 1 Type: Tab 0 ratings
1 star 2 stars 3 stars 4 stars 5 stars
comments

Lovers Rock Tab

   
The Clash
Lover's Rock
London Calling

Standard Tuning
Key: ^ - bend note (1 step--so every bent 10 sounds like a 12)
     r - release bend (fast or slowly)
     v - vibrato
     x - end note
Intro
   G               Am    D    G
e---------------------------------------|
B------8---8---10^-r10v-----10^rx-8--8--|
G--7h9---9---9--------------------------|
D---------------------------------------|
A---------------------------------------|
E---------------------------------------|
   G               Am    D    G
e--------------10^-r10v-----10^r^r^r--|
B------8---8--------------------------|
G--7h9---9---9------------------------|
D-------------------------------------|
A-------------------------------------|
E-------------------------------------|

Verse
G                              Am
You must treat your lover girl right
D                 (bass fill)
If you wanna make lover's rock
G                             Am
You must know a place you can kiss
D          (bass fill)
To make... Lover's rock

Bass Fill
G---------------|
D---------------|
A--5/7-5--------|
E--------7-5-3--|

Chorus
G                          Am
Cuz everybody knows it's a cryin' shame
D                         C
But nobody knows the poor baby's name
G                                   Am
When she forgot that thing that she had
D       C
Ohh, to swallow...

Verse 2 (same as first)
You Western man, you're free with your seed
When you make lovers rock
But woops! there goes the strength that you need
To make real cool lovers rock

Chorus (same as first)
Cuz a genuine lover takes off his clothes
And he can make a lover in a thousand go's
And she don't need that thing that she had
Ohh, to swallow...
[ Tab from: http://www.guitartabs.cc/tabs/c/clash/lovers_rock_tab.html ]
Solo
e--10^--x--10^-7---------------------------------------|
B----------------------10-8-10^r8-------8-10^-10^r-8v--|
G---------------------------------9-7-9----------------|
D------------------------------------------------------|
A------------------------------------------------------|
E------------------------------------------------------|

e---------------------7---15p12-12---10/12--10-------|
B----8-10-10^----8h10---------------------------10^--|
G--9-------------------------------------------------|
D----------------------------------------------------|
A----------------------------------------------------|
E----------------------------------------------------|

3rd Verse (words are the same as the first)
e----------------------------------|
B--10/12-12-8-------10/12\10-8--8--|
G-------------9--------------------|
D----------------------------------|
A----------------------------------|
E----------------------------------|
 ...girl right.                 to make lovers rock...
e-------------------------10^*---|
B--8*------------8---10-8--------|
G--------------7---9-------------|
D--------------------------------|
A--------------------------------|
E--------------------------------|
know a place you can kiss...

Final Chorus (words same as first)
e------------------------------------------10-----------------|
B------8-8----------7-8----10^r8-8----10^----10r------10v--8v-|
G--7h9-----9---7-7h9---------------9--------------------------|
D-------------------------------------------------------------|
A-------------------------------------------------------------|
E-------------------------------------------------------------|

Outro
e-----------------------------------|
B-----------------------------------|
G-----------------------------------|
D------7-------9-------7---9--7--5--|
A--5/9-----7/9-----5/7--------------|
E-----------------------------------|
The ending mainly consists of these three parts:
e---------------------|---------|---------------|
B---------------------|------8--|--10^----10r8--|
G--5-5-4-5-5-5-4-5-4--|--5/7----|---------------|
D---------------------|---------|---------------|
A---------------------|---------|---------------|
E---------------------|---------|---------------|
There are layers and layers of stuff on the outro
So I have no idea what the rhythm chords are.
Let's just say they're D C and G.

That's about it.
Comments