Clash - Londons Burning Chords & Tabs

 

Londons Burning Chords & Tabs

Clash Chords & Tabs

Version: 2 Type: Bass Tab 0 ratings
1 star 2 stars 3 stars 4 stars 5 stars
comments

Londons Burning Bass Tab

   
Correct Londons burning bass tab


standard tuning (E,A,D,G)


__Intro

G|----------------------------------|
D|----------------------------------|
A|----------------------------------|
E|3-3-3-3-3--------3-3-3-3-3--------|

  London's burning London's burning

__Chorus

G|---------------------------------|
D|---------------------------------|
A|--------3-3-5----------3-3-5-----|
E|3-3-1-1---------3-3-1-1----------|

__Verse
[ Tab from: http://www.guitartabs.cc/tabs/c/clash/londons_burning_btab_ver_2.html ]
G|---------------------------|
D|---------------------------|
A|----------33--1--0---------|
E|33--11------------3--1-----|

     All across the town...

__Part when strummer is ranting and raving near end

G|------------------------------------|
D|------------------------------------|
A|---------------55555----77777-------|
E|--55555---33333---------------------|


__End

G|----------------------------------|
D|----------------------------------|
A|----------------------------------|
E|3-3-3-3-3-------------------------|

that should be rightttttttttttttt
enjoy yourself
John Gill
JohnPop@hotmail.com

good luck dear boy
Comments