Clash - Londons Burning Chords & Tabs

 

Londons Burning Chords & Tabs

Clash Chords & Tabs

Version: 1 Type: Bass Tab 0 ratings
1 star 2 stars 3 stars 4 stars 5 stars
comments

Londons Burning Bass Tab

   
standard tuning (E,A,D,G)


Intro

G|--------------------------------|
D|--------------------------------|
A|--------------------------------|
E|3-3-3-3-3--------3-3-3-3-3/-----|

  London's burning..London's burning....

Chorus

G|-------------------------------|
D|-------------------------------|
A|--------3-3-5/----------3-3-5/-|
E|3-3-1-1---------3-3-1-1--------|
[ Tab from: http://www.guitartabs.cc/tabs/c/clash/londons_burning_btab.html ]
This part is without lyrics, next time (when strummer is singing)
play D note insted of sliding it

Verse

G|-----------------------------------------------------------------|
D|-----------3---------------3---------------3---------------------|
A|---0---033--53-----0---033--53-----0---033--53-------------------|
E|33--11--------5333--11--------5333--11--------53----R------------|

song progression

intro
chorus
verse
chorus
verse
chorus
verse
chorus (couple of times)
outro (it's just G)


thanks
Joseph Pawich
dryice@net.hr
Comments