Clash - London Calling Chords & Tabs

 

London Calling Chords & Tabs

Clash Chords & Tabs

Version: 5 Type: Bass Tab 0 ratings
1 star 2 stars 3 stars 4 stars 5 stars
comments

London Calling Bass Tab

THIS IS THE RIGHT WAY!!!

intro
g|---------------5-----------------------------------|
d|---------------------------------------------------|
a|--2/7----6767-----2/7----6767----------------------|
e|------------------------------3--------------------|
[ Tab from: http://www.guitartabs.cc/tabs/c/clash/london_calling_btab_ver_5.html ]
verse
g|---------------------------------------------------|
d|-------2-----3-------------------------------------|
a|---2323--2323--2323--2323--------------------------|
e|-------------------3-----3-------------------------|

" the iceage is coming..."
g|---------------------------------------------------|
d|-------------------3X------------------------------|
a|7-7-7-9-10-10-10-9----7-7-7-7----------------------|
e|------------------------------10-9-8-7--10-9-8-7---|
Comments