Clash - London Calling Chords & Tabs

 

London Calling Chords & Tabs

Clash Chords & Tabs

Version: 4 Type: Bass Tab 0 ratings
1 star 2 stars 3 stars 4 stars 5 stars
comments

London Calling Bass Tab

    From: vwilliam@nbnet.nb.ca (vwilliam)
    
    Hi, here's the bass tab for London Calling by the Clash.
    
    
    
    The Clash - "London Calling" Bass Tab
    
    by Kirk Williams
    
    
    Intro (not too sure, but it sounds okay, and corresponds with the
           guitar chords)
    
    G--------------------
    D---------7----------
    A--1/7-676--1/7-676--
    E------------------3-
    
    Verse
    
    G--------------------
    D--77-----77---------
    A-7---6767---6767----
    E----------------33--
    
    "The ice-age is coming" part
    
    G---------------------------------------------------------------
    D--5555-6-7777-6-5555-6-7777-6-5555-6-7777-6-5555---------------
    A-7----------------------------------------------8-7-6-5-8-7-6-5
    E---------------------------------------------------------------
    
    
    That's about it. Send comments or corrections (most likely the latter)
    to c2ib@unbsj.ca
    
    
    Kirk
    
    

[ Tab from: http://www.guitartabs.cc/tabs/c/clash/london_calling_btab_ver_4.html ]
Comments