Clash - London Calling Chords & Tabs

 

London Calling Chords & Tabs

Clash Chords & Tabs

Version: 2 Type: Bass Tab 1 rating
1 star 2 stars 3 stars 4 stars 5 stars
comments

London Calling Bass Tab

#----------------------------------PLEASE NOTE---------------------------------#
#This file is the author's own work and represents their interpretation of the #
#song. You may only use this file for private study, scholarship, or research. #
#------------------------------------------------------------------------------#

Song: London calling
Artists: The Clash
Album: London Calling
[ Tab from: http://www.guitartabs.cc/tabs/c/clash/london_calling_btab_ver_2.html ]
Intro & Break
G---------------------------------------
D-----------------10--------------------
A--2/-7---10-8-10-----2/-7---10-8-10----
E------------------------------------8--

Verse
G----------------------------------
D----2--------3--------------------
A--2----0202-----0202-----0202-----
E----------------------3--------3--

Chorus
G---------------------- x3 G-------------- x2
D--0-2-2-22--4-5-5-55--    D--------------
A----------------------    A--5--4--3--2--
E----------------------    E--------------

It is easy to play, and it's a very beauty song!!!

email me for questions... mc_call@email.it
Comments