Clash - Listen Chords & Tabs

 

Listen Chords & Tabs

Clash Chords & Tabs

Version: 3 Type: Bass Tab 0 ratings
1 star 2 stars 3 stars 4 stars 5 stars
comments

Listen Bass Tab

   
Band: The Clash
Song: Listen
Tabbed by: Daniel Rodriguez
E-mail: label1987@hotmail.com

Intro
G|-----------------------------------------10-10-10-------------10-10-10-|
D|-----------------------------------------------------------------------|
A|-2-3-2-3-3-5-5-5-7-7-7-9-9-9-11-11-11-11----------11-11-11-11----------|
E|-----------------------------------------------------------------------|

Riff 1
G|--------------------------------------10-10-10--------------10-10-10---|
D|-----------------------------------------------------------------------|
A|-3-3-3-5-5-5-7-7-7-9-9-9-11--11-11-11----------11--11-11-11------------|
E|-----------------------------------------------------------------------|

Riff 2
G|-------------------------------------------------------|
D|-------------------------------------------------------|
A|--5-5-5-5-5-5-5-5-5-5-5-5-5-0-0-0-0-0-0-0-0-0-0-0-0-0--|
E|-------------------------------------------------------|
[ Tab from: http://www.guitartabs.cc/tabs/c/clash/listen_btab_ver_3.html ]
Riff 3
G|-------------------------------------------|
D|-------------------------------------------|
A|--6-7-7-7-7-7-7-7-7-7-7-7-7-7-7-7-7-7-7-7--|
E|-------------------------------------------|

Ending
G|-----------------------------------------------------|
D|-----------------------------------------------------|
A|-4-4-4-4-4-4-4-4-4-4-4-4-4-1-1-1-1-1-1-1-1-1-1-1-1-1-|
E|-----------------------------------------------------|

ORDER
Riff 1 (5x)
Riff 2 (2x)
Riff 3 (1x)
Riff 2 (2x)
Riff 3 (1x)
Riff 1 (2x)
Riff 2 (2x)
Riff 3 (1x)
Riff 2 (2x)
Riff 3 (1x)
Riff 1 (2x)
Ending (about 10x)

if you have any comments or corrections e-mail me.enjoy!
Check out other tabs by me:
The Clash "I'm So Bored With The U.S.A."
The Clash "Police and Thieves"
The Clash "Rebel Waltz"
The Clash "The Equaliser"
The Clash "The Crooked Beat"
Black Flag "Paralize"
Patty Smith "Till Victory"
Gang of Four "Love Like Anthrax"
Q And Not U "So Many Animal Calls"
Black Lips "Throw It Away"
Comments