Clash - Jimmy Jazz Chords & Tabs

 

Jimmy Jazz Chords & Tabs

Clash Chords & Tabs

Version: 3 Type: Bass Tab 0 ratings
1 star 2 stars 3 stars 4 stars 5 stars
comments

Jimmy Jazz Bass Tab

Artist: The Clash
Title: Jimmy Jazz
Album : London Calling
Tuning : EADG

This is a song with walking bass in it.Paul Simonon variates at the end very
much.I don't tab every lick nd stuff but anyway,most of it.If you know to improvite,you know the chords.

Intro:
G--------------------------------------------------------------------------|
D--------------------------------------------------------------------------|
A--------------------7-9-9-9---4-5-5-5-----------6-7-7-7-------4-5-----6-7-|
E-4-5-5-5---4-5-5-5----------------------4-5-5-5-----------4-5------4-5----|
[ Tab from: http://www.guitartabs.cc/tabs/c/clash/jimmy_jazz_btab_ver_3.html ]
Maybe try to slide,simonon doesn't do that,but it sounds good.
G-----------------------------------------------------------------|
D-----------------------------------------------------------------|
A-----------------------99999999---55555555------------77777777---|
E-55555555---55555555-------------------------55555555------------|

G-----------------------|
D-----------------------|
A------5555------7777---|
E-5555------5555--------|

Main riff
G------------------------------------------------------|
D--------------------8-11-8---4-7-4-------------6-9-9--|
A---4-7-4---4-7-4--9--------5----------4-7-4--7--------|
E-5-------5--------------------------5-----------------|

Jimmy jazz,jazz..............
G-------------------|
D-------4-----------|
A---4-5------4-7-4--|
E-5--------5--------|

Before the saxophone solo,the intro is played again.

Then some of the variaties.
G--------------------------------------------------------------------|
D--------------------------------------------------------------------|
A---4-7-4----4-7-4---7/-9-9-9-9/-5-5-5-5------------------------5--7-|
E-5--------5-----------------------------5-5-5-5/-12-12-12-12-5--5---|

and paul plays sometimes just the main tones.
Comments