Clash - Inoculated City Chords & Tabs

 

Inoculated City Chords & Tabs

Clash Chords & Tabs

Version: 2 Type: Bass Tab 0 ratings
1 star 2 stars 3 stars 4 stars 5 stars
comments

Inoculated City Bass Tab

Inoculated City Bass Tablature
by the clash
Transcribed by Andrew Schmidt (jamesjschmidt@worldnet.att.net) 

Intro:
G-----------------------
D-----------------75----			  
A ---5-----5---0------5-  	
E 5-----5---------------				
[ Tab from: http://www.guitartabs.cc/tabs/c/clash/inoculated_city_btab_ver_2.html ]
Main Riff
G---------------------------------------------
D--------------------------------------75-----
A-----0-55-0-5-0-55-0-5-0-55-0-5----0-----5--- 
E---------------------------------------------

Outro:
G---------------------
D---------------------
A---0-33-0-3-0-33-0-3-
E--------------------- 

Comments