Clash - Im So Bored With The Usa Chords & Tabs

 

Im So Bored With The Usa Chords & Tabs

Clash Chords & Tabs

Version: 2 Type: Tab 0 ratings
1 star 2 stars 3 stars 4 stars 5 stars
comments

Im So Bored With The Usa Tab

   
		     I'M SO BORED WITH THE U.S.A. - The Clash
-----------------------------------------------------------------------------
Tabbed by: dead_kennedy77
Email: dima_zador@yahoo.com

Tuning: Standard

| /  slide up
| \  slide down
| h  hammer-on
| p  pull-off
| ~  vibrato
| +  harmonic
| x  Mute note

Make sure you listen to the song carefully.

Intro                 Pre-Verse     [sloppy] 
e|--------------------|-----7-7-7~-------7~-7~---7-7-7~--------7~-7~---------
B|--------------------|-----9-9-9~-------9~-9~---9-9-9~--------9~-9~---------
G|--------------------|-----9-9-9~-9-----9~-9~---9-9-9~-9------9~-9~---------
D|---------------9-9--|x5---9-9-----9-9--9~-9~---9-9-----9--9--9~-9~---------
A|-------7-7----------|-----7-7------7---7~-7~---7-7------7-7--7~-7~---------
E|---0-0-----0-0------|------------------------------------------------------
 (I'm not so sure on the notes in between the E chords here)
e|-7-7-7~-------7~-7~---7-7-7~-------7~-7~--|
B|-9-9-9~-------9~-9~---9-9-9~-------9~-9~--|
G|-9-9-9~-9-----9~-9~---9-9-9~-9-----9~-9~--|
D|-9-9-----999--9~-9~---9-9-----9xx--9~-9~--|
A|-7-7-----777--7~-7~---7-7-----7xx--7~-7~--|
E|------------------------------------------|

Verse
   E5                              A5         E5
e|------------------------------------------------------------|
B|-9--7--9--7/9~---9-7---9--7/9~--------------7-9--7--7/9~----|
G|-9--7--9--7/9~---9-7---9--7/9~---666667776--7-9--7--7/9~----|
D|---------------------------------777777777------------------|x2
A|------------------------------------------------------------|
E|------------------------------------------------------------|
Yankee soldier
He wanna shoot some skag
He met it in Cambodia
Now he can't afford a bag

Yankee dollar talk
To the dictators of the world
In fact it's giving orders
And they can't afford to miss a word

[ Tab from: http://www.guitartabs.cc/tabs/c/clash/im_so_bored_with_the_usa_tab_ver_2.html ]
 Chorus 
   C5 C5 B5 A5 G5 A                 E 
e|----------------5~-5555555---|----7-77777-7777-7--7-77777-7777----|
B|----------------5~-5555555---|----9-99999-9999-9--9-99999-9999----|
G|----------------6~-6666666---|----9-99999-9999-9--9-99999-9999----|
D|-6~-6--5--7--5--7~-7777777---|x2--9-99999-9999-9--9-99999-9999----|
A|-6~-6--5--7--5--7~-----------|----7-77777-7777-7--7-77777-7777----|
E|-8~-8--7--5--3--5~-----------|------------------------------------|
I'm so bored with the U.S.A 
I'm so bored with the U.S.A
But what can I do?

[verse]
Yankee detectives
Are allways on the TV
Cause killers in America 
Work seven days a week

Nevermind the stars and stripes
Let's print the Watergate Tapes
I'll salute the New Wave
And I hope nobody esapes

[chorus]
I'm so bored with the U.S.A.
I'm so bored with the U.S.A.


e|-------------------------------------------------------------------------|
B|-------------------------------------------------------------------------|
G|-------------------------------------------------------------------------|
D|--------------9-9-------------9-9-------------9-9---------------9-9------|
A|-------7--------------7-7-------------7-7---------------7-7--------------|
E|-0-0-0---0--0-----0-0-----0-0------0------0-0-------0-0-----0-0----------|
But what can I do?

[pre-verse (first half)]




 Chorus                   
                           (Gtr. 2: E5     A5       E5     A5       E5    ) 
   C5 C5 B5 A5 G5 A              A  E5 
e|----------------5~-5555555-|---5~-----------------------------------------
B|----------------5~-5555555-|---5~-----------------------------------------
G|----------------6~-6666666-|---6~-9--9-9----9-7---9--9-9----9-7---9--9-9--
D|-6~-6--5--7--5--7~-7777777-|x2-7~-9--9-9--------9-9--9-9--------9-9--9-9--
A|-6~-6--5--7--5--7~---------|------7--7-7----------7--7-7----------7--7-7--
E|-8~-8--7--5--3--5~---------|----------------------------------------------   
I'm so bored with the U.S.A.
I'm so bored with the U.S.A.
But what can I do?
                 


e|--------------------7-9~----|
B|--------------------9-9~----|
G|----9-7---9--9-9----9-9~----|
D|--------9-9--9-9----9-9~----|
A|----------7--7-7----7-7~----|
E|----------------------------|

[chorus]
I'm so bored with the U.S.A.
I'm so bored with the U.S.A.
I'm so bored with the U.S.A.
But what can I do?

Outro
    E5    A5              E5
e|------------------|----------------------|
B|------------------|----------------------|
G|--9-9-9/14-14-14\-|------9~~-------------|
D|--9-9-9/14-14-14\-|x6----9~~-------------|
A|--7-7-7/12-12-12\-|------7~~-------------|
E|------------------|----------------------|
Move up Starsky
For the C.I.A.
Suck on Kojak
For the U.S.A.
=========================================================

That's it.
Please rate.
E-mail me for w/E.
Comments