Clash - Im So Bored With The Usa Chords & Tabs

 

Im So Bored With The Usa Chords & Tabs

Clash Chords & Tabs

Version: 2 Type: Bass Tab 0 ratings
1 star 2 stars 3 stars 4 stars 5 stars
comments

Im So Bored With The Usa Bass Tab

   
Band: The Clash 
song: I'm So Bored With The U.S.A.
Tabbed by: Daniel Rodriguez
E-mail: label1987@hotmail.com

Intro:
G|---------------------| (4x)
D|---------------------|
A|-5-5-5-5-5-5-5-5-5-5-|
E|---------------------|

Riff 1:
G|---------------------|(4x)-----------------------|
D|---------------------|---------------------------|
A|-7-7-7-7-7-7-7-7-7-7-|than play...---------------|
E|---------------------|-5-5-5-5-5-5-5-5-5-5-5-5-5-|

Riff 2:
G|-------------------------------------| (2x)
D|-------------------------------------|
A|-------------------------------------|
E|-5-5-5-5-5-5-5-4-4-3-2-2-2-2-2-2-2-2-|
[ Tab from: http://www.guitartabs.cc/tabs/c/clash/im_so_bored_with_the_usa_btab_ver_2.html ]
Riff 3:
G|-------------------------------------------| (1x)
D|-------------------------------------------|
A|-5-5-5-5-5-5-5-5-5-5-5-5-5-5-5-5-5-5-5-5-5-|
E|-------------------------------------------|

Riff 4:
G|-------------------------------------------| (1x)
D|-------------------------------------------|
A|-7-7-7-7-7-7-7-7-7-7-7-7-7-7-7-7-7-7-7-7-7-|
E|-------------------------------------------|

Riff 5:
G|---------------------(4x)-|
D|--------------------- ----|
A|-5-5-5-5-5----------- -5--|
E|-----------5-5-5-5-5- ----|

Ending Part:
G|--------------|--------------------|(4x)-|
D|--------------|--------------------|-----|
A|--5-----5-----|7-7-7-7-7-5-5-5-5-5-|-7---|
E|--------------|--------------------|-----|

Of course the clash is the best punk band in the world, and if you have any
questions or corrections for these tabs write me at: label1987@hotmail.com
Comments