Clash - Im Not Down Chords & Tabs

 

Im Not Down Chords & Tabs

Clash Chords & Tabs

Version: 1 Type: Bass Tab

Im Not Down Bass Tab

   
-----------------------------------------------------------------
 Im Not Down - The Clash - London Calling
-----------------------------------------------------------------
Tabbed By: Ethan Linck
e-mail: ntkbassist@yahoo.com
Tuning: Normal

The lyrics do not indicate any sense of timing, only so each part
could be found easily within the song. Enjoy!

Intro -
G|-------------------|
D|---3-2-0-----------| x2
A|-3---------3-2-3---|
E|---------3---------|

Bridge 1 -
G|------------------------------------------------------|
D|------------------------------------------------------| 
A|---------------------------------55-5-55-44-4-44--7-7-|
E|-77-7-77-55-5-55-44-4-44-22-2-22----------------------|

Verse part 1 - 
If its true a rich man leads a sad life...
G|-------------------------------------------------|
D|-------------------------------------------------| x2
A|--------------------9-7-(9)-4-44-4-4--5-55-5-5---|
E|-5-55-5-5--5-55-5-5------------------------------|
[ Tab from: http://www.guitartabs.cc/tabs/c/clash/im_not_down_btab.html ]
Chorus - 
Ive been beat up, Ive been thrown out...
G|-------------------------------------------|
D|-------------------------------------------| 
A|------------4-4-----5-4-----------------2--|
E|-5-5--2-4-5-------5-----2-2--0-2-4-5--0----|

G|-------------------------------------------|
D|-------------------------------------------| 
A|------------4-4-----5-4--------------------|
E|-5-5--2-4-5-------5-----2-2--0-2-4-5-------|

Bridge 1 

Verse Part 2 - 
On my own, I faced a gang of jeering...
G|---------------------------------------------------|
D|---------------------------------------------------| x2
A|--------------9-7--(9)-4-4-4--4-4-4--5-5-5--5-5-5--|
E|-5-5-5--5-5-5--------------------------------------|

Chorus 

Bridge 1 

Bridge 2 -
So Ive lived that kind of day...
G|-------------------4------------------------------|
D|--------4------4-6--6-4---------------------------| 
A|----4-7--4---7-----------5---0h5-5--0h4-4--0h-2-2-|
E|-5------------------------------------------------|

G|-------------------4-----------------------------------|
D|--------4------4-6--6-4--------------------------------| 
A|----4-7--4---7-----------5---0h5-5--0h4-4--0h-2-2--7-7-|
E|-5-----------------------------------------------------|

Verse 1

Chorus

Bridge 1

Outro -
Im not down!
G|----------------|
D|----------------| 
A|----------------|
E|-0-5-4-2-2-22-0-|

The shameless plug:
http://whiteboard.dmusic.com