Clash - I Fought The Law Chords & Tabs

 

I Fought The Law Chords & Tabs

Clash Chords & Tabs

Version: 3 Type: Tab 0 ratings
1 star 2 stars 3 stars 4 stars 5 stars
comments

I Fought The Law Tab

   
-------------------------------------------------------------------------------
			     I FOUGHT THE LAW - The Clash
-------------------------------------------------------------------------------
Tabbed by:Andrew Wolpert
Email:www.gopherman4@hotmail.com

Tuning:standard e
[ Tab from: http://www.guitartabs.cc/tabs/c/clash/i_fought_the_law_tab_ver_3.html ]
	This is how i play it, and turn up the treble for The Clash sound
	this is the intro part
e|---------------------------------------------------------------------------|
B|---------------------------------------------------------------------------|
G|-12/14-14--12/14-14--12/14-14--12/14-14--12/14-14--12/14-14--14-12-11------|
D|----------------------------------------------------------------------12---|
A|---------------------------------------------------------------------------|
E|---------------------------------------------------------------------------|twice
	while the other guitar does this
   D                   G         D         D                   A  G  F# D
e|-2-------------------1---------2---------2----------------------------2----|
B|-3-------------------0---------3---------3-------------------2--------3----|
G|-2-------------------0---------2---------2-------------------2--------2----|
D|-------------------------------------------------------------2-------------|
A|----------------------------------------------------------------0--0-------|
E|----------------------------------------------------------------3--2-------|twice
	Main riff:   
   D                  G      D          D                  G        D
e|-2--x-x--2--x-x--|--3-3----2--------|-2--x-x--2--x-x--|--3-3------2--------|
B|-3--x-x--3--x-x--|--0-0----3--------|-3--x-x--3--x-x--|--0-0------3--------|
G|-2--x-x--2--x-x--|--0-0----2--------|-2--x-x--2--x-x--|--0-0------2--------|
D|-----------------|------------------|-----------------|--------------------|
A|-----------------|------------------|-----------------|--------------------|
E|-----------------|------------------|-----------------|--------------------|
   D                 A        D
e|-2--x-x--2--x-x--|---------------------------------------------------------|
B|-3--x-x--3--x-x--|-2-x-x----2----------------------------------------------|
G|-2--x-x--2--x-x--|-2-x-x----3----------------------------------------------|
D|-----------------|-2-x-x----2----------------------------------------------|
A|-----------------|---------------------------------------------------------|
E|-----------------|---------------------------------------------------------|
   D                  G      D          D                  G        D
e|-2--x-x--2--x-x--|--3-3----2--------|-2--x-x--2--x-x--|--3-3------2--------|
B|-3--x-x--3--x-x--|--0-0----3--------|-3--x-x--3--x-x--|--0-0------3--------|
G|-2--x-x--2--x-x--|--0-0----2--------|-2--x-x--2--x-x--|--0-0------2--------|
D|-----------------|------------------|-----------------|--------------------|
A|-----------------|------------------|-----------------|--------------------|
E|-----------------|------------------|-----------------|--------------------|
   D                 A        D
e|-2--x-x--2--x-x--|---------------------------------------------------------|
B|-3--x-x--3--x-x--|-2-x-x----2----------------------------------------------|
G|-2--x-x--2--x-x--|-2-x-x----3----------------------------------------------|
D|-----------------|-2-x-x----2----------------------------------------------|
A|-----------------|---------------------------------------------------------|
E|-----------------|---------------------------------------------------------|
   G                 D                G                 D
e|-3--3--3--3------|-22-22-22-x-22--|-3--3--3--3------|-2--x-x--2--x-x-------|
B|-0--0--0--0------|-33-33-33-x-33--|-0--0--0--0------|-3--x-x--3--x-x-------|
G|-0--0--0--0------|-22-22-22-x-22--|-0--0--0--0------|-2--x-x--2--x-x-------|
D|-----------------|----------------|-----------------|----------------------|
A|-----------------|----------------|-----------------|----------------------|
E|-----------------|----------------|-----------------|----------------------|
    G      D          D                  A G F#D
e|--3-3----2--------|-2--x-x--2--x-x--|--------2------|----------------------|
B|--0-0----3--------|-3--x-x--3--x-x--|--2-----3------|----------------------|
G|--0-0----3--------|-2--x-x--2--x-x--|--2-----2------|----------------------|
D|------------------|-----------------|--2------------|----------------------|
A|------------------|-----------------|----0-0--------|----------------------|
E|------------------|-----------------|----3-2--------|----------------------|
	Solo:
	Bend the strings a little to make it sound right
e|-----------------7--10--12bend\10------------------7--10--12bend-----------|
B|-------7--8--10--------------------------7--8--10--------------------------|
G|-7--9------------------------------7--9------------------------------------|
D|---------------------------------------------------------------------------|
A|---------------------------------------------------------------------------|
E|---------------------------------------------------------------------------|

e|-----7--10--12--14bend\12------------------7--10--12bend\10--7-------------|
B|-10------------------------------7--8--10----------------------------------|
G|---------------------------7--9--------------------------------------------|
D|---------------------------------------------------------------------------|
A|---------------------------------------------------------------------------|
E|---------------------------------------------------------------------------|

	Then do the intro thingy again

| /  slide up
| \  slide down
| x  mute note
===============================================================================
Comments