Clash - Hitsville Uk Chords & Tabs

 

Hitsville Uk Chords & Tabs

Clash Chords & Tabs

Version: 1 Type: Bass Tab

Hitsville Uk Bass Tab

song: hitsville UK
artist: the clash !
tabbed by "boldra"AT"gmail.com"
not for commercial use
[ Tab from: http://www.guitartabs.cc/tabs/c/clash/hitsville_uk_btab.html ]
intro:
----|----------------|
----|----------------|
--3-|3---33--3-3-33--|
35-5|----------------|
intro bis: X3
----------------|
----------------|
33--33--3-3-33--|
----------------|
verse: (there are 4 verses)
X* means repeat note X with rithm from intro bis
--------------------------------|
--------------------------------|
3*3*3*--3*3*3*------3*------3*--|
------3*------5*1*3*--1*1*3*--1*|
(final of verses 1,3)
----------------|----------------|--------------------|
----------------|----------------|--------------------|
----------------|3---33--3-3-33--|----------3-33-33---|
1---11--1-1-1-0-|----------------|1-11-3-33-----------|
(final of verse 2)
----------------|----------------|--------------------|
----------------|----------------|--------------------|
----------------|3---33--3-3-33--|----------333333333-|
11--11--1-1-1-0-|----------------|1-11-3-33-----------|
(this is between verse 2 and 3:)
----------------|----------------|
----------------|----------------|
3---33--3-3-33--|33--33--3-3-33--|
----------------|----------------|
(final of verse 4, repeat 4X)
----------------|----------------|-------------------------||
----------------|----------------|-------------------------||
----------------|3---33--3-3-33--|------------3--33-3-3-33-||
1---11--1-1-1-0-|----------------|1-11--3-33---------------||
then the final final:
----------------|----------------|---------------------|
----------------|----------------|---------------------|
----------------|3---33--3-3-33--|--------5---5---3----|
1---11--1-1-1-0-|----------------|1---0----------------|