Clash - Guns Of Brixton Chords & Tabs

 

Guns Of Brixton Chords & Tabs

Clash Chords & Tabs

Version: 2 Type: Bass Tab 0 ratings
1 star 2 stars 3 stars 4 stars 5 stars
comments

Guns Of Brixton Bass Tab

The Clash - Guns Of Brixton
-----------------------------


G|-------------------------------------------------------------|
D|-------0----4-4-4-4-4---0----------------0----4-4-4-4-4---0--|
A|--2-------------------------2---2---2------------------------|
E|-------------------------------------------------------------|


G|-------------------------------------------------------------|
D|--------------0-------------0---------------0-------------0--|
A|--2---2---2---------------------2---2---2--------------------|
E|-----------------3-3-3-3-3---------------------3-3-3-3-3-----|


G|-----------------|
D|--------------0--|
A|--2---2---2------|
E|-----------------|


----------------------------------------------------------------------


G|--------------2-----4-------------------------2-----4----------|
D|--4-4-4-4-4------------------0----4-4-4-4-4-----------------0--|
A|-------------------------2------------------------------2------|
E|---------------------------------------------------------------|


G|---------------------------------------------------------------|
D|-------------0---------------0--------------0---------------0--|
A|-----------------2---2---2-----------------------2---2---2-----| x2
E|--3-3-3-3-3----------------------3-3-3-3-3---------------------|


----------------------------------------------------------------------


G|---------------------------------------------------------------|
D|-4-4-4-4-4---0---------------0---4-4-4-4-4--0---------------0--|
A|-----------------2---2---2----------------------2---2---2------|
E|---------------------------------------------------------------|


G|---------------------------------------------------------------|
D|-------------0---------------0--------------0---------------0--|
A|-----------------2---2---2----------------------2---2---2------| x2
E|-3-3-3-3-3-----------------------3-3-3-3-3---------------------|


----------------------------------------------------------------------


Break! 20sec... (guitars keeps playing)


----------------------------------------------------------------------

[ Tab from: http://www.guitartabs.cc/tabs/c/clash/guns_of_brixton_btab_ver_2.html ]
G|---------------------------------------------------------------|
D|-4-4-4-4-4---0---------------0---4-4-4-4-4--0---------------0--|
A|-----------------2---2---2----------------------2---2---2------|
E|---------------------------------------------------------------|


G|---------------------------------------------------------------|
D|-------------0---------------0--------------0---------------0--|
A|-----------------2---2---2----------------------2---2---2------| x5
E|-3-3-3-3-3-----------------------3-3-3-3-3---------------------|


----------------------------------------------------------------------


G|--------------2-----4-------------------------2-----4----------|
D|--4-4-4-4-4------------------0----4-4-4-4-4-----------------0--|
A|-------------------------2------------------------------2------|
E|---------------------------------------------------------------|


G|---------------------------------------------------------------|
D|-------------0---------------0--------------0---------------0--|
A|-----------------2---2---2-----------------------2---2---2-----| x2
E|--3-3-3-3-3----------------------3-3-3-3-3---------------------|


----------------------------------------------------------------------


G|---------------------------------------------------------------|
D|-4-4-4-4-4---0---------------0---4-4-4-4-4--0---------------0--|
A|-----------------2---2---2----------------------2---2---2------| 
E|---------------------------------------------------------------|


G|---------------------------------------------------------------|
D|-------------0---------------0--------------0---------------0--|
A|-----------------2---2---2----------------------2---2---2------| x4
E|-3-3-3-3-3-----------------------3-3-3-3-3---------------------|


----------------------------------------------------------------------

Fade out
G|---------------------------------------------------------------|
D|-------------0---------------0--------------0---------------0--|
A|----------------2---2---2-----------------------2---2---2------| x2 
E|--3-3-3-3-3---------------------3-3-3-3-3----------------------|

Whole song! Listen and play... /Hydroxidus
Comments