Clash - Guns Of Brixton Chords & Tabs

 

Guns Of Brixton Chords & Tabs

Clash Chords & Tabs

Version: 1 Type: Bass Tab 0 ratings
1 star 2 stars 3 stars 4 stars 5 stars
comments

Guns Of Brixton Bass Tab

BAND: THE CLASH
SONG: GUNS OF BRIXTON
ALBUM: LONDON CALLING
BASSIST: PAUL SIMONON


PART 1:
G|-----------------------------------------|
D|-----------------------------------------|
A|---5-9-9-9-9-9-5------5-9-9-9-9-9-5------|
E|-7---------------7--7---------------7----|

G|-----------------------------------------|
D|-----------------------------------------|
A|---5-----------5------5-----------5------|
E|-7---3-3-3-3-3---7--7---3-3-3-3-3---7----|
[ Tab from: http://www.guitartabs.cc/tabs/c/clash/guns_of_brixton_btab.html ]
PART 2:
G|-----------------------------------------|
D|---------------7-9----------------7-9----|
A|---5-9-9-9-9-9--------5-9-9-9-9-9--------|
E|-7------------------7--------------------|

G|-----------------------------------------|
D|-----------------------------------------|
A|---5-----------5------5-----------5------|
E|-7---3-3-3-3-3---7--7---3-3-3-3-3---7----|

THIS IS IT! THIS IS AN EASY BASS LINE, ITS EASY TO HEAR WHICH PART GOES WHERE
SO I'LL LET YOU FIGURE THAT OUT.
Comments