Clash - Death Or Glory Chords & Tabs

 

Death Or Glory Chords & Tabs

Clash Chords & Tabs

Version: 1 Type: Bass Tab 0 ratings
1 star 2 stars 3 stars 4 stars 5 stars
comments

Death Or Glory Bass Tab

Artist:The Clash
Song Title:Death or Glory
Album:London Calling
Tabber:ffbassplayer
E-Mail:ffbassplayer_52389@yahoo.com
Date:July 10,2005
Tuning:Standard(EADG)

Intro
G:--------------12-9--------------12------------------------------------|
D:-12-10~-12-10------12-10~-12-10----12~--------------------------------|
A:----------------------------------------------------------------------|
E:----------------------------------------------------------------------|

Chorus
G-------------------------------------------------------|
D----------------------2-0------------------------2-0---|
A---------------3-3-3------3---------------3-3-3-----3--|
E--1-1--1-1-1-1--------------3-3--3-3-3-3---------------|
[ Tab from: http://www.guitartabs.cc/tabs/c/clash/death_or_glory_btab.html ]
Verse
G---------------------------------------------------------------------|
D------------------4h5-5-5-5-5-5-5--2h3-3-3-3-3-3-3---------5-3-2-----|
A--2h3-3-3-3-3-3-3----------------------------------2h3-3-3-----------|
E---------------------------------------------------------------------|

Bridge                    When Joe starts singing it changes to this
G-----------------------IG------------------------|
D------------------5-2--ID---------------5-3h2----|
A----2-3-5-3-2-3-5------IA----2-5-3-2-3-5---------|
E--3--------------------IE--3---------------------|

Later In the Song, Play the Intro Then the Intro Stops and Paul plays this

G-----------------------------------------|
D------7-10------7-10---------------------|
A--8-8-------8-8------------7-10----7-10--|
E-----------------------8-8------8-8------|
Comments