Clash - Complete Control Chords & Tabs

 

Complete Control Chords & Tabs

Clash Chords & Tabs

Version: 1 Type: Tab 0 ratings
1 star 2 stars 3 stars 4 stars 5 stars
comments

Complete Control Tab

#----------------------------------PLEASE NOTE---------------------------------#
#This file is the author's own work and represents their interpretation of the #
#song. You may only use this file for private study, scholarship, or research. #
#------------------------------------------------------------------------------##
The Clash
Complete Control
Tabber: Unknown

Intro
E:---5-----7-----9-----5-----7---------------------------------------|
B:------7----9-----------7---9---------------------------------------|
G:-------------9-------------9---------------------------------------|
D:---------------------------9---------------------------------------|
A:---------------------------7---------------------------------------|
E:---------------------------7---------------------------------------|


 Main riff
E:-------------------------------------------------------------------|
B:-------------------------------------------------------------------|
G:---9-9-9-9-9-9-9-9-8-8-8-8-9-9-9-9-9-------------------------------|
D:---9-9-9-9-9-9-9-9-9-9-9-9-9-9-9-9-9-------------------------------|
A:---7-7-7-7-7-7-7-7-9-9-9-9-7-7-7-7-7-------------------------------|
E:-------------------------------------------------------------------|
[ Tab from: http://www.guitartabs.cc/tabs/c/clash/complete_control_tab.html ]
Chorus
    Ohh Ohh Ohh
E:-------------------------------------------------------------------|
B:---5---------------------------------------------------------------|
G:---6-------6------8--------------9---------------------------------|
D:---6-------7------9--------------9---------------------------------|
A:-----------7------9--------------7---------------------------------|
E:-------------------------------------------------------------------|
   
E:-------------------------------------------------------------------|
B:---5---------------------------------------------------------------|
G:---6-------6------88888--------------------------------------------|
D:---6-------7------99999(cont)--------------------------------------|
A:-----------7------99999--------------------------------------------|
E:-------------------------------------------------------------------|

Bridge
  Total      C-O-N control
E:------------------------------------------------------------------|
B:------5-----------------------------------------------------------|
G:-8-6--6-----7--6----9---------------------------------------------|
D:-9-7--6-----7--7----9---------------------------------------------|
A:-9-7--------5--7----7---------------------------------------------|
E:------------------------------------------------------------------|
Comments