Clash - Clash City Rockers Chords & Tabs

 

Clash City Rockers Chords & Tabs

Clash Chords & Tabs

Version: 2 Type: Bass Tab 0 ratings
1 star 2 stars 3 stars 4 stars 5 stars
comments

Clash City Rockers Bass Tab

Clash City Rockers Bass Tablature
by the clash

Transcribed by: Coteeeeee (mattcote@yahoo.com)

The opening and verse bass tab
[ Tab from: http://www.guitartabs.cc/tabs/c/clash/clash_city_rockers_btab_ver_2.html ]
Opening
G---------------------------------------
D---------------------------------------
A-7-7--5-5-----------------------7-7----
E--------5-5--3-3--7-7--5-5--7-7--------

 
Verse
G------------------------------------------------------------------------
D------------------------------------------------------------------------
A-7-7-7-7--5-5-5-5---------------------------------------------7-7-7-7---
E------------------5-5-5-5--3-3-3-3--7-7-7-7--5-5-5-5--7-7-7-7-----------

Comments