Clash - City Of The Dead Chords & Tabs

 

City Of The Dead Chords & Tabs

Clash Chords & Tabs

Version: 1 Type: Bass Tab 0 ratings
1 star 2 stars 3 stars 4 stars 5 stars
comments

City Of The Dead Bass Tab

The Clash - "City of the Dead"
This tab is by M.K. and not anyone else.

* = play a whole bunch o' times

Intro/Breakdown

G--------------|
D--------------|
A--------------|
E-3*-1*-5*-1*-3|

Verse

G-----------------------------|
D-----32-----------32---------|
A--25---325-35--25---325-35---|
E-3--1-----3---3--1-----3-----|
[ Tab from: http://www.guitartabs.cc/tabs/c/clash/city_of_the_dead_btab.html ]
Verse cont'd

G-----------------------------------|
D---0250*---------------3*2*--------|
A-33----------23*-3*2*----------2-3-|
E----------115--------------3-5-----|

"This is the city of the dead..."

G-----------|
D--5*-------|
A-----------|
E-----------|

It's pretty much just the same thing over and over again and so you can figure
that out for yourself.
Comments