Clash - Career Opportunities Chords & Tabs

 

Career Opportunities Chords & Tabs

Clash Chords & Tabs

Version: 1 Type: Bass Tab 0 ratings
1 star 2 stars 3 stars 4 stars 5 stars
comments

Career Opportunities Bass Tab

   
The Clash
Career Opportunities Bass Tablature
Transcribed by: vwilliam@nbnet.nb.ca (vwilliam)
G---------|
D---------|
A---------|  4x
E-55555-0-|


Verse

G--------------------------|
D--------------------------|
A------4-5-5-545-7-7-554---|  2x
E-5-5-5------------------5-|

The "Do you want to make..." part

G------------------------------------|
D------------------------------------|
A-8-7-6-5--8-7-6-5--8-7-6-5--8-7-6-5-|
E------------------------------------|

then...

G------------66-77-88-99-|
D---44-55-77-------------| 
A-55---------------------|
E------------------------|

[ Tab from: http://www.guitartabs.cc/tabs/c/clash/career_opportunities_btab.html ]
Chorus                  

G-----------|
D-----------|
A--------55-| 3x  
E--5-00-2---|

Then you play the starting riff again, twice.


Bridge (job listing part)

G-------------------------------------------------------|
D-------------------------------------------------------|
A-----------33-------------33-------------33-5555-77777-|
E-5-5-3-3-55-----5-5-3-3-55-----5-5-3-3-55--------------|


The ending part

G-----------------------------------------------------|
D-7-7--------------7-7--------------7-7-------------7-|
A-----4-4-5-5-7-7------4-4-5-5-7-7------4-4-5-5-7-7---|
E-----------------------------------------------------|

Comments