Clash - Capital Radio Chords & Tabs

 

Capital Radio Chords & Tabs

Clash Chords & Tabs

Version: 1 Type: Bass Tab 0 ratings
1 star 2 stars 3 stars 4 stars 5 stars
comments

Capital Radio Bass Tab

There are only four parts of the song

1st(intro, verse #2):
G|-----------------------------------------------------------------|
D|-2-2-------------2-2-------------2-2-------------2-2-------------|
A|-----4-2-0-0-2-4-----4-2-0-0---------4-2-0-0-2-4-----4-2-0-0-----|
E|-----------------------------2-0-----------------------------2-0-|

G|-----------------------------------------------------------------|
D|-2-2-------------2-2---------3-6---------------------------------|
A|-----4-2-0-0-2-4-----4-2-4-4---------4-7-----6-9-----------------|
E|---------------------------------5-------7-----------------------|

2nd (verse #1):
[ Tab from: http://www.guitartabs.cc/tabs/c/clash/capital_radio_btab.html ]
G|-----------------------------------------------------------------|
D|-2-2-------------2-2-------------2-2-------------2-2-------------|
A|---------2-2-------------0-0-------------2-2-------------0-0-----|
E|-----------------------------------------------------------------|

G|-----------------------------------------------------------------|
D|-2-2-------------2-2---------------------------------------------|
A|---------2-2-------------4-4---------4-7-----6-9-----------------|
E|---------------------------------5-------7-----------------------|

3rd ("...but now all the stations are silenced..."):

G|----------------9-|
D|-2/4/7------7-9---|
A|------------------|
E|------------------|

4th (chorus):

G|-----------------|
D|-----------------|
A|-7-7-4-4---------|
E|---------5-5-7-7-|

figure out schedule yourself
Comments