Clash - Brand New Caddilac Chords & Tabs

 

Brand New Caddilac Chords & Tabs

Clash Chords & Tabs

Version: 1 Type: Bass Tab 0 ratings
1 star 2 stars 3 stars 4 stars 5 stars
comments

Brand New Caddilac Bass Tab

Song title:Brand New Cadillac
Album:London Calling
Artist:The Clash
Tabber:ffbassplayer
E-mailL:ffbassplaye_52389@yahoo.com
Tuning:Standard

Intro
G----------------------|
D----------------------|
A----------------------|
E-0--00---0--00---000--|

Verse
G-------------------------------------------------------------|
D-------------------------------------------------------------|
A-------------------------------------------------------------|
E--00-33-55-6-5----00-33-55-6-5---00-33-55-6-5---00-33-55-6-5-|
[ Tab from: http://www.guitartabs.cc/tabs/c/clash/brand_new_caddilac_btab.html ]
G------------------------------------------------------------|
D------------------------------------------------------------|
A--00-33-55-6-5----00-33-55-6-5------------------------------|
E--------------------------------00-33-55-6-5--00-33-55-6-5--|

End Verse
G----------------------|
D----------------------|
A----------------------|
E--7-7-7-7-7-7-7-7--5--|

Right after end verse
G------------------------------|
D------------------------------|
A------------------------------|
E--00-33-55-6-5--7-7-7-7-7-7-7-|
Comments