Clash - 19 Chords & Tabs

 

19 Chords & Tabs

Clash Chords & Tabs

Version: 1 Type: Bass Tab 0 ratings
1 star 2 stars 3 stars 4 stars 5 stars
comments

19 Bass Tab

1977 Bass Tablature
by the clash

Transcribed by eidrtcheve@aol.com

G -----------------------------|
D -----------------------------|
A -----0--0--------------------|
E ---2--------2----1-1-1--2----|

I'm almost positive that's how the intro goes. then it goes into this
for the verse:
[ Tab from: http://www.guitartabs.cc/tabs/c/clash/19_btab.html ]
G -----------------------------|
D -----------------------------|
A -------0--0------------------|
E ----2---------2-----1-1-1-2--|

the same thing, except to a different rhythm. then there is the bit for chorus
(the bit i tabbed starts on "you'd better paint your face!"), which goes
something like this (i hope)

G ------------------|
D ------------------|
A ---0--------------|
E -------2--1---2---|
Comments