Clash - 1977 Chords & Tabs

 

1977 Chords & Tabs

Clash Chords & Tabs

Version: 2 Type: Bass Tab

1977 Bass Tab

Time:20.49
Date:10/March/06

Now then some good old classic punk. The Clash with 1977.

Key
s-slide

Intro/Verse
G------------------------------------------------------------------|
D------------------------------------------------------------------|
A------------------------------------------------------------------|
E--1s3--1--0--0--1--1--1--3--3--1--1--0--0--0--1--1--1-------------|
[ Tab from: http://www.guitartabs.cc/tabs/c/clash/1977_btab_ver_2.html ]
Chorus
G--------------------------------------------------------------------------|
D------------------------------------------------------------------0--0--0-|
A---------------7--5--3--5---------------7--5--3--2----3--3--3--3----------|
E--3--3--3--3----------------3--3--3--3------------------------------------|

Progression
Intro x1
Verse x2
Chorus x1
Verse x2
Chorus x1
Guitar solo(just play Intro/Verse)
Verse x2
Chorus x1
Verse x8

END