Clarks - Born Too Late Chords & Tabs

 

Born Too Late Chords & Tabs

Clarks Chords & Tabs

Version: 1 Type: Tab 0 ratings
1 star 2 stars 3 stars 4 stars 5 stars
comments

Born Too Late Tab

Clarks
Born too late
Tabbed by Gary T (garyt_44@yahoo.com

Verse:
e|---------0-------|
B|---------0-------|
G|---------1-----4-|
D|---------2--4--4-|
A|-6-4-2-1-2--4--2-|
E|---------0--2----|
repeat twice

e|---------------------|
B|---------------------|
G|----------------6----|
D|----------6--4--4--4-|
A|-6-4-2-1--6--4--4--4-|
E|----------4--2-----2-|

repeat everything and then end with:

e|-2--0-----2-|
B|-2--0--4--2-|
G|-3--1--4--3-|
D|-4--2--4--4-|
A|-------6--4-|
E|------------|
[ Tab from: http://www.guitartabs.cc/tabs/c/clarks/born_too_late_tab.html ]
Chorus:
e|--------------------|
B|--------------------|
G|-4--6---------------|
D|-4--6--4----4-------|
A|-2--4--4--6---6p4-2-|
E|-------2------------|
repeat twice

e|----------0--2--0----|
B|-------4--0--2--0--4-|
G|----6--4--1--3--1--4-|
D|-6--6--4--2--4--2--4-|
A|-6--4--6-----------6-|
E|-4-------------------|

Solo:
e|--------------------------------------------------------------------|
B|-4-2-0-----0-------4-2-0-----0-2-4---4-2-0--------------------------|
G|-4-3-1-3-1-1-3-4-4-4-3-1-3-1-1-3-4-4-4-3-1-3-1-1--------------------|
D|-------4-2---4-4-4-------4-2-------4-------4-1-1-4-4-2-2--4-------4-|
A|-------------------------------------------------4-4-4-4-6--6p4-2-4-|
E|------------------------------------------------------------------2-|
Comments