Clarks - Better Off Without You Chords & Tabs

 

Better Off Without You Chords & Tabs

Clarks Chords & Tabs

Version: 1 Type: Tab 0 ratings
1 star 2 stars 3 stars 4 stars 5 stars
comments

Better Off Without You Tab

   
Clarks
Better off without you
Tabbed by gary T (gary_t44@yahoo.com)

Intro:
e|-----------------------------------------------|
B|-----------------------------------------------|
G|------9-9--7-7--9-9-7-7------9-9--7-7--9-9-7-7-|
D|-7-7--9-9--7-7--9-9-7-7-7-7--9-9--7-7--9-9-7-7-|
A|-7-7--7-7--5-5--7-7-5-5-7-7--7-7--5-5--7-7-5-5-|
E|-5-5--------------------5-5--------------------|

pre chorus:
e|---|
B|---|
G|-9-|
D|-9-|
A|-7-| x alot
E|---|

chorus:
e|---------------------------------------------------------|
B|---------------------------------------------------------|
G|---------9-9-9-9-7-7-7-7-7-7-7-7-------9-9--7-7--9-9-7-7-|
D|-7-7-7-7-9-9-9-9-7-7-7-7-7-7-7-7--7-7--9-9--7-7--9-9-7-7-|
A|-7-7-7-7-7-7-7-7-5-5-5-5-5-5-5-5--7-7--7-7--5-5--7-7-5-5-|
E|-5-5-5-5--------------------------5-5--------------------| 2x
[ Tab from: http://www.guitartabs.cc/tabs/c/clarks/better_off_without_you_tab.html ]
Post Chorus:
e|-----------------------------------------------|
B|-----------------------------------------------|
G|------9-9--7-7--9-9-7-7------9-9--7-7--9-9-7-7-|
D|-7-7--9-9--7-7--9-9-7-7-7-7--9-9--7-7--9-9-7-7-|
A|-7-7--7-7--5-5--7-7-5-5-7-7--7-7--5-5--7-7-5-5-|
E|-5-5--------------------5-5--------------------|

bridge 1:
e|-----------|
B|-----------|
G|-9-7-9-7-9-|
D|-9-7-9-7-9-|
A|-7-5-7-5-7-|
E|-----------| figure out the struming for this

this is played during the solo:
e|---------------------------------------------------------------------------|
B|---------------------------------------------------------------------------|
G|------9-9--7-7--9-9-7-7------9-9--7-7--9-9-----9-9--7-7--7-7-9-9-7-7-9-9---|
D|-7-7--9-9--7-7--9-9-7-7-7-7--9-9--7-7--9-9-7-7-9-9--7-7--7-7-9-9-7-7-9-9---|
A|-7-7--7-7--5-5--7-7-5-5-7-7--7-7--5-5--7-7-7-7-7-7--5-5--5-5-7-7-7-7-7-7---|
E|-5-5--------------------5-5----------------5-5-------------------5-5-------|

e|-----------------|
B|-----------------|
G|-7-7-7-7-7-7-7-7-|
D|-7-7-7-7-7-7-7-7-|
A|-5-5-5-5-5-5-5-5-|
E|-----------------|

Bridge 2:
e|------------------------|
B|------------------------|
G|------9-9--7-7--9-9-7-7-|
D|-7-7--9-9--7-7--9-9-7-7-|
A|-7-7--7-7--5-5--7-7-5-5-|
E|-5-5--------------------| x2

outro:
e|---|
B|---|
G|---|
D|-7-|
A|-7-|
E|-5-|x a lot
Comments