Clarke Stanley - Vulcan Princess Chords & Tabs

 

Vulcan Princess Chords & Tabs

Clarke Stanley Chords & Tabs

Version: 1 Type: Bass Tab 1 rating
1 star 2 stars 3 stars 4 stars 5 stars
comments

Vulcan Princess Bass Tab

 Stanley Clarke - Vulcan Princess
 All bass orchestration done by Mr. Clarke

 Tabbed by Catdude


G------------------------------------------------------------------------l
D------------------------------------------------------------------------l
A-5-5-5-5-5-5-5-5-5-5-5-5-5-5-5-5\\1-1-1-1-1-1-1-1-1-1-1-1-1-1-1-1//7\\0-l
E------------------------------------------------------------------------l

G------------------------------------------------------------------------l
D------------------------------------------------------------------------l
A--------------------------------//7-7-7-7-7-7-7-7-7-7-7-7-7-7-7-7-7-7---l
E-3-3-3-3-3-3-3-3-3-3-3-3-3-3-3-3----------------------------------------l

[ Tab from: http://www.guitartabs.cc/tabs/c/clarke_stanley/vulcan_princess_btab.html ]
G------------------------------l
D-----------7-9--5-7--3-5--2-3-l
A-7-7-8-7-8--------------------l  \
E------------------------------l   \
                                    >  x4
G------------------------------l   /
D-----------3-5--2-3-----------l  /
A-4-4-6-4-6----------5-7--3-5--l
E------------------------------l


Since Stanley Clarke Does all the Orchestration in this song,
there are two bass parts being played at the same time.

The first and main groove is:

G-5-7---------------------l
D-----5-7--5-7------------l
A--------------3-5--33333-l
E-------------------------l

The second and background groove is all popping:

G-5-55-55-5-55-5h7-l   Sometimes instead of the 5h7 it will be G-12p10-
D------------------l
A------------------l
E------------------l
  p pp pp p pp p 


Play those grooves until 3:15 and go back to:

G------------------------------l
D-----------7-9--5-7--3-5--2-3-l
A-7-7-8-7-8--------------------l  \
E------------------------------l   \
                                    >  x2
G------------------------------l   /
D-----------3-5--2-3-----------l  /
A-4-4-6-4-6----------5-7--3-5--l
E------------------------------l

Finish the song by playing the first few notes on the A string

Have fun!!



Comments