Clarke Gilby - Pills Chords & Tabs

 

Pills Chords & Tabs

Clarke Gilby Chords & Tabs

Version: 1 Type: Tab 0 ratings
1 star 2 stars 3 stars 4 stars 5 stars
comments

Pills Tab

		         PILLS (GILBY CLARKE)
TAB: HERNAN YANSENSON (ARGENTINA)

MAIN RIFF 
e|---------------------------------------------------------------
b|---------------------------------------------------------------
g|--9-9---------6--------------------9-9----------6--------------
d|--9-9-6--7--9------7-----------7---9-9--6--7--9-----9----------
a|--7-7-0--0--0------7-4--5---7--7---7-7--0--0--0-----9-6--7--9--
E|-------------------5-0--0---0--5--------------------7-0--0--0--
[ Tab from: http://www.guitartabs.cc/tabs/c/clarke_gilby/pills_tab.html ]
e|---------------------------------------------------------------
b|---------------------------------------------------------------
g|----9-9---------6----------------------------------------------
d|----9-9-6--7--9------7-----------7---9-9-9-9-------------------
a|----7-7-0--0--0------7-4--5---7--7---9-9-9-9-------------------
E|---------------------5-0--0---0--5---7-7-7-7-------------------


CHORUS (PLAYED AS YOU HEAR)

E: X 7 9 9 X X
A: 5 7 7 X X X
B: 7 9 9 X X X

E-MAIL: yansen@datafull.com
Comments