Clapton Eric - Wonderful Tonight Live On Snl Chords & Tabs

 

Wonderful Tonight Live On Snl Chords & Tabs

Clapton Eric Chords & Tabs

Version: 1 Type: Tab 1 rating
1 star 2 stars 3 stars 4 stars 5 stars
comments

Wonderful Tonight Live On Snl Tab

Artist: God
Title :Wonderful Tonight (Live)


By: Manuel Stallforth

(time just for SNL)
(0:19)
E--------------------------------------------------------------------|
B-------5---7---8---10---7---3---------------------------------------|
G--------------------------------------------------------------------|
D---5----------------------------------------------------------------|
A--------------------------------------------------------------------|
E--------------------------------------------------------------------|

E--------------------------------------------------------------------|
B-------5---3---1/0---3---5---7/10---8-------------------------------|
G--------------------------------------------------------------------|
D---5----------------------------------------------------------------|
A--------------------------------------------------------------------|
E--------------------------------------------------------------------|


first riff (0:33)
E--------------------------------------------------------------------|
B--------------------------------------------------------------------|
G-----14(16)14(16)-12-14----14(16)14(16)-12--------14(16)14(16)-12-14|
D--12--------------------12------------------14-12-------------------|
A--------------------------------------------------------------------|
E--------------------------------------------------------------------|

E--------------------------------------------------------------------|
B--------------------------------------------------------------------|
G------------------------14/12---------------------------------------|
D---14/12-----------14-----------------------------------------------|
A---14------14/12----------------------------------------------------|
E--------------------------------------------------------------------|
etc.

Solo1(3:29)
[ Tab from: http://www.guitartabs.cc/tabs/c/clapton_eric/wonderful_tonight_live_on_snl_tab.html ]
E-------------------------------------------------------------------------------------|
B---(17)-15-15-------15-13-(15)------------12-13-14(15)-13-12-------------------------|
G--------------16-17-----------12-12-12-14--------------------14-12-------------------|
D-------------------------------------------------------------------14-12-------------|
A-------------------------------------------------------------------------14-12-14-10-|
E-------------------------------------------------------------------------------------|

interlude(3:42)

E------------10---------------------------------------------------------|
B----10-(12)----~(12)10-8-10--------------------------------------------|
G--7-------------------------9------------------------------------------|
D-----------------------------------------------------------------------|
A-----------------------------------------------------------------------|
E-----------------------------------------------------------------------|

solo2 (5:49)

E---------15-17-(19)-(19)-17--19-(20)-19-17------------------------------|
B---15-17-----------------------------------19/20------------------------|
G------------------------------------------------------------------------|
D------------------------------------------------------------------------|
A------------------------------------------------------------------------|
E------------------------------------------------------------------------|


E------------------------------------------------------------------------|
B--15-17-(18)-17-15----15------------------------------------------------|
G-------------------17----17-16-17-16-14-16-14----14---------------------|
D----------------------------------------------17----17-16-17-16-14------|
A------------------------------------------------------------------------|
E------------------------------------------------------------------------|

E----------------------------------------------------------14-(19)~(19)--|
B----------------------------------------------------15-17---------------|
G------------------------------------------------------------------------|
D--16-14----14-----------------------------------17----------------------|
A--------17----17-16-17-16-14-16-14----14--------------------------------|
E-----------------------------------17----17-15--------------------------|




Corrections-Questions?
ManuelStallforth@gmx.de
Comments