Clapton Eric - Unplugged Chords & Tabs

 

Unplugged Chords & Tabs

Clapton Eric Chords & Tabs

Version: 1 Type: Tab 0 ratings
1 star 2 stars 3 stars 4 stars 5 stars
comments

Unplugged Tab

   
----------------------------------PLEASE NOTE---------------------------------#
#This file is the author's own work and represents their interpretation of the #
#song. You may only use this file for private study, scholarship, or research. #
#------------------------------------------------------------------------------##

From: Geir Fuskelandgeirf@ifi.uio.no


=====================================================================
SIGNE -Eric Clapton (Unplugged)
=====
The hard part of this song is to get the timing right.
Start by playing the chords only when listening to the CD.
Then, add the bass notes, and finally the hammer-on's and pull-off's.

I don't remember the exact order of the parts, but you'll find out.
(Try:  Intro, Part 1, 1, 2, 2, 1, 1, 3, 3, 1, 1, End )

Intro:
  A      E/A          A      E/A                      A
--------------0----]--------------0----]  play     ]---------------]
-----2-----0-------]-----2-----0-------]  this     ]--2---------0--]
-----2-----1-------]-----2-----1-------]  a few    ]--2-----1h2----]
-----2-----2-------]-----2-----2-------]  times,   ]--2------------]
--0-----0----------]--0-----0----------]  then     ]--0------------]
-------------------]-------------------]           ]---------------]

Part 1:
  A               D9/F#          D9/E           E
]----0-------0--]----0------0--]----0------0--]----0----------]
]--2-------2----]--3------3----]--3------3----]--0---------0--]
]--2-------2----]--2------2----]--2------2----]--1-----1h2----]
]---------------]--------------]--------------]---------------]
]--0-----0------]--------------]--------------]---------------]
]---------------]--2----2------]--0----0------]--0---0--------]

Part 2:

  A               F#               Bm             E
----0----------]----2-----------]----2---------]----0----------]
--2-------2p0--]-------------2--]--3------3p2--]--0---------0--]
--2-------2----]--3------3h4----]--4------4----]--1-----1^2----]
---------------]--4-------------]--------------]---------------]
--0-----0------]----------------]--2----2------]---------------]
---------------]--2----2--------]--------------]--0---0--------]

Part 3:

  C#m7           F#m7           Bm             E
--4--4--4--4--]----2------2--]----2---------]----0----------]
--5--5--5--5--]---------2----]--3------3p2--]--0---------0--]
--4--4--4--4--]--2------2----]--4------4----]--1-----1^2----]
--------------]--2-----------]--------------]---------------]
--4--4--4--4--]--------------]--2----2------]---------------]
--------------]--2----2------]--------------]--0---0--------]

End:
  A              A
--------------]--5----]
--2--2--2--2--]--2----]
--2--2--2--2--]--2----]
--2--2--2--2--]--2----]
--0--0--0--0--]--0----]
--------------]-------]

Happy playing!
Geir Fuskeland
geirf@ifi.uio.no
=========================================================================




========================================================================
Hey hey   - Eric Clapton (Unplugged)


This is the 12-bar blues pattern that repeats all through the song.
I don't think it's all correct, but it sounds pretty good to me.

The vocal part follows the same pattern, only simpler.
(basically just the bass string and small fill-ins)
This is not to hard to figure out if you listen to the CD


 E                                              (E7)
]---------------]----9---9------]---------------]----9---9------]
]--------8------]----8---8-8----]--------8------]----8---8-8----]
]------------9--]------------9--]------------9--]------------9--]
]---------------]---------------]---------------]---------------]
]2/7------------]---------------]2/7------------]---------------]
]----0---0---0--]0---0---0---0--]----0---0---0--]0---0---0---0--]



 A                               E
]--------3---2--]----3-3-----2--]---------------]----9---9------]
]------2---2---5]--2-------2---5]--------8------]----8---8-8----]
]---------------]---------------]------------9--]------------9--]
]---------------]---------------]---------------]---------------]
]7\--0---0---0--]0---0---0---0--]2/7------------]---------------]
]---------------]---------------]----0---0---0--]0---0---0---0--]



 B7              A   ]3 ]        E           ]3 ]
]----5-5-7-5----]----3p2-2------]----4-0-----2p0-]0-----0-0-----]
]--4------------]--2----5--5----]--0------------2]------0-0-----]
]---------------]---------------]1---------------]------1-1-----]
]4---4---4---4--]2---2---2---2--]----------------]--------------]
]---------------]---------------]----------------]--0h2---------]
]---------------]---------------]0---0---0---0---]0-------------]


================================================================
                      
                      
                          


==========================================================

Version 2
Tears In Heaven (Eric Clapton)

Below are my attempt to reproduce the two main riffs in Tears
of Heaven off Eric Clapton's unplugged album. There is really
only one figuring which is a reach which is the A to Esus2.

     ___________
     ]_]_]_]_]_]
     ]_]_1_1_1_1
     ]_]_]_]_]_]
     2_]_]_3_]_]
     ] ] ] ] 4 ]

Play the A as a partial barre  add other three fingers to construct the Esus2.

Tears In Heaven (Eric Clapton)

Lick 1: (The Verse)

         A     Esus2  F#m    F#m/E      D     A        E
E ---------------------------------------------------------------------
B ----------2---5-----2---------2---------3-3-2-02---------------------
G ------------2-4-------2-------2-2-------2--------2-------1---2---4---
D ----------2-----2---4---4---------4---0-----2------2-----2-----------
A --------0-----------------4---------4-------0----------2---2-4---5---
E --0-2-4-------4---0-2-------0------------------------0---------0---0-

Would you know my name...

         A   Esus2/G# F#m    F#m/E      D     A        E
E ----------------2-----------------------------------------------------
B ------------2-----5-----------------------3-3-2-0---------------------
G --------------2-------2-----------2-----2-----2----2-------1---2---4--
D ----------2---------2-----4---------2-0-------2------2-----2----------
A --------0-------------------4----4------------0----------2---2-4---5--
E --0-2-4---------4-----2--------0-----------------------0---------0---0

   F#m       C#/F    Em/G          F#               Bm       E
E ---------------------------------------------------------------------
B ---------0--------------------------------0---2----3-----------------
G -----2-2---1------------0-0-2-----3----------------4-4-4---1---------
D -----4-----3-3----------2---------4-4--------------4-----4-2---------
A ---4-----------4------2-----------4---4------------2-------2---------
E -2-------2-1-----1--3-------------2-----2---2---2----------0---------


Lick 2:

         C       G   F                     Em    G
E -----------0-0-------------------------------------------------------
B ---------------3---1-------1---3-0-----3-------0---------------------
G ---------0-------0---2-----2-----0---2---0-0-2-----------------------
D -----------------------2-----0-----0-----2---------------------------
A -0-2-3-3-------2---0-----0---------------2---------------------------
E ---------------------------2-----3---2---0---2-3---------------------

Time will bend your knees...

==========================================================
                                                   Version 3
                                              Most detailed

            "Tears In Heaven" (Unplugged)
 Intro:
  H     HP
 --]----------------]----------------]----------------]----------------]
 --]----232-5---5-2-]---2---2----2---]3---3---3---3---]2---2---2---2---]
 --]-------24---4-2-]---2---2----2---]2---2---2---1---]2---2---2---2---]
 --]--2-------------]----------------]----------------]----------------]
 --]0---------------]----------------]----------------]0-0---0---0---0-]
 02]--------4-4---2-]-2---2-0--0---0-]2-2---2-0---0---]----------------]

                    ]---5/75---------]
        2nd guitar  ]-------5/75---5-]
        part        ]-----------4/6--]
`                    ]----------------]
                    ]----------------]
                    ]----------------]
  H     HP                                    H
 --]----------------]----------------]------------0---]----------------]
 --]----232-5---5-2-]---2---2----2---]3---3---2-3---0-]--0---2----3----]
 --]-------24---4-2-]---2---2----2---]2---2---2-----1-]--1---2----4----]
 --]--2-------------]----------------]0-0---0---------]----------------]
 --]0---------------]----------------]----------------]--------4/5-----]
 02]--------4-4---2-]-2---2-0--0---0-]--------------0-]0---0-----------]
    Would you know my name       

                                           H
                    ]---2-4-45--4-2-0]
        2nd guitar  ]----------------]
        part        ]----------------]
                    ]----------------]
                    ]----------------]
                    ]----------------]
        HP                                    H
   ]----------------]----------------]------------0---]----------------]
   ]2---232-5---5-2-]---2---2----2---]3---3---2-3---0-]--0---2----3----]
   ]2------24---4-2-]---2---2----2---]2---2---2-----1-]--1---2----4----]
   ]----------------]----------------]0-0---0---------]----------------]
   ]--0-------------]----------------]----------------]--------4/5-----]
   ]--------4-4---2-]-2---2-0--0---0-]--------------0-]0---0-----------]
  

   ]----2-----2-----]----1-----1-----]----0-----0-----]----------------]
   ]--2-----2-----2-]--2-----2-----2-]--3-----3-----3-]----------------]
   ]--2-----2-----2-]--1-----1-----1-]--0-----0-----0-]3---3----4---6--]
   ]----------------]----------------]----------------]4---4----4---6--]
   ]----------------]----------------]----------------]----------------]
   ]2-----2-----2---]1-----1-----1---]0-----0-----0---]--2---2/4-4/6---]
     

   ]----------------]----------------]
   ]----3-----3---3-]3-3---3---------]
   ]----2-----2---2-]2-2---2---------]
   ]--4-----4-----4-]2-2---2---------]
   ]2-----2-----2---]----------------]
   ]----------------]----------------]
    
   Before the next verse the part of the 2nd guitar goes like this:

    H H HP P
   ]----------------]
   ]----232---------]
   ]--24---42-------]
   ]24-------42-----]
   ]----------------]
   ]----------------]

   Bridge:

 --]----------------]--------2---2---]----------------]--------------]
 --]----1-------1---]----1---3---3--2]----2-------2---]----2--1--1---]
 --]----0-------0---]----0---2---2--0]----0-------0---]----0--0--0---]
 --]--2-------2-----]--2-----0-0-0--0]----0-----0-----]--0----2--2---]
 02]3-----3-2-----2-]0---------------]----------------]--------------]
 --]----------------]---------------3]--3---3-2-----2-]0------0--2---]
       Time can bring you down Time can bend your knees

   ]----------------]--------2---2---]----------------]--------------]
   ]----1-------1---]----1---3---3--2]----2---3---3---]0---0---2----3]
   ]----0-------0---]----0---2---2--0]----0---2---2---]3---3---2----4]
   ]--2-------2-----]--2-----0-0-0--0]----0-----------]--------------]
   ]3-----3-2-----2-]0---------------]----------------]----------4/5-]
   ]----------------]---------------3]--3---3-2-2---2-]0-0---0-------]
    
      

========================================================================

acoustic version of Layla n 12/8 time

                                Layla
                                 by
                            Eric Clapton


Intro
     Dm         Bb        C      Dm          Bb      C         Dm
]-------]----------------]-------------]-1----------]----------------]
]-------]--------3--3----]-5-5---------]-3-----3-3--]----------------]
]-------]--------3--3----]-5-5---------]-2-----3-3--]----------------]
]-----0-]--------3--3----]-5-5-0-----0-]-------3-3--]-------0------0-]
]-0^3---]--3--1-------3--]-------0^3---]---3-1------]-3-0-3----0^3---]
]-------]----------------]-------------]------------]----------------]


         Bb      C          Dm
]--1----------------]--------------]
]--3--------3-3-----]--5-5-----5-6-]
]--2--------3-3-----]--5-5---------]
]-----------3-3-----]--5-5--0------]
]-----3--1-------3--]--------------]
]-------------------]--------------]


First Solo:
Dm               Bb       C        Dm                          Bb
]-----------------------]-------------8----8-]-10-12-10-8-10-8----------------]
]-5^6^5---5-6-5---5-6-8-]-6-8-10-8-10---10---]-----------------10-8-10-8-6^8^6]
]-------7-------7-------]--------------------]--------------------------------]
]-----------------------]--------------------]--------------------------------]
]-----------------------]--------------------]--------------------------------]
]-----------------------]--------------------]--------------------------------]

  C       Dm           Bb   C
]-------------------]------]--------]
]-5-6-5-------5-6-5-]------]--------]
]-------7-5-7-------]-7----]--------]
]-------------------]------]--------]
]-------------------]------]-----0-3]
]-------------------]------]--------]


2nd solo:

[ Tab from: http://www.guitartabs.cc/tabs/c/clapton_eric/unplugged_tab.html ]
Dm        Bb      C              Dm                                 Bb
]----------------]---------------------]-------------------------------------
]-6-6-6---6------]---------------------]-------13-13-------13-13-------13-13-
]-7-7-7-7---7----]---------------------]-13/14-14-14-13/14-14-14-13/14-14-14-
]-------------7--]-6--5\3--5^3---------]-------------------------------------
]----------------]-------------5--3/5--]-------------------------------------
]----------------]---------------------]-------------------------------------


              C                        Dm
-------------]----------------------------------------------]
-------13-13-]-------13-13-------13-13-------13-15----------]
-13/14-14-14-]-13/14-14-14-13/14-14-14-13/14-------12\10----]
-------------]-------------------------------------------12-]
-------------]----------------------------------------------]
-------------]----------------------------------------------]


  Dm                   Bb                    C             Dm
]-------------------10-12-10^12^10----10----]-----------------------------]
]----------------13----------------13----13-]-10--10-10-10-11-10----------]
]-10----10-12/14----------------------------]--------------------12-------]
]----12-------------------------------------]-----------------------------]
]-------------------------------------------]-----------------------------]
]-------------------------------------------]-----------------------------]


           Bb         C               Dm                       Bb
]-------------------]-----------------------------]-13--10--------------10]
]-------------------]-5-6-5^6^5-------------------]------------------13---]
]-10-9-7^9-7-5---7--]-----------7-5---------------]-----------------------]
]--------------7----]---------------7-6\5-3-5^3---]-----------------------]
]-------------------]---------------------------5-]-----------------------]
]-------------------]-----------------------------]-----------------------]

  C                  Dm                            Bb      C        Dm
]-12--11/12--10---------------------]--10----13-10-------]-15-15-15-13------]
]---------------13------------------]-----10---------13--]---------------15-]
]--------------------14-13-14\12----]--------------------]------------------]
]--------------------------------12-]--------------------]------------------]
]-----------------------------------]--------------------]------------------]
]-----------------------------------]--------------------]------------------]

                  Bb        C               Dm
]-12-13-15---13-15---12-13-]-10-----------------------------]
]--------------------------]----13-10-------13-10-----------]
]--------------------------]----------12-10-------12\10-----]
]--------------------------]-----------------------------12-]
]--------------------------]--------------------------------]
]--------------------------]--------------------------------]

         Bb        C         Dm
]-----------------]-----------------]
]-----------------]-----------------]
]-9-8--8-8--8^9---]--5--------------]
]---------------7-]----7-6-5\3------]
]-----------------]-------------5---]
]-----------------]-----------------]

repeat chorus:
===========================================================================
                            Version 2
                       Layla (Unplugged)
                       By Eric Clapton
---------------]--------------------------------]-------------------------
---------------]---------------------3---3------]---5---5---5-------------
------------2--]---------------------3---3------]---5---5---5--2---------2
------------0--]----0--------3-------3---3------]---5---5---5--0---------0
-----0---3-----]--------3----1-------1---1----3-]---3---3---3------0--3---
---------------]--------------------------------]-------------------------

---1-------------------------]---------------------------------------------
---3-----------------3--3----]---5-----------------------------------------
---2-----------------3--3----]---5----------2------------------------------
---------------3-----3--3----]---5-----5----0--------------0---------------
-----------3---1-----1--1--X-]---3--0--3-----------0---3-------------------
-----------------------------]---------------------------------------------

-1----1----------------]----------------------]----------------------------
-3----3----------------]--------------------5-]5\6\5----5-6-5----5-6/8-----
-2----2----------------]------------------7---]------7--------7------------
-0----0---X--3--3----3/]-5--5--5---7----7-----]----------------------------
-------------1--1----1/]-3--3--3---5----------]----------------------------
-----------------------]----------------------]----------------------------

--------------------8----------]-10-12-10/12/10----10----------------------
--6--8/10----8--10------10 13--]----------------13----13-10---10----12/10--
-------------------------------]---------------------------12---12---------
-------------------------------]-------------------------------------------
-------------------------------]-------------------------------------------
-------------------------------]-------------------------------------------

---------------------]---------------------------]-------------------------
---------------5-6-5-]---------------------------]-------------------------
--9--10-9-----7------]-7------7----------------3-]-------------------------
------------7--------]-----7-----7/5---3---3/5---]-------0-----------------
---------------------]-------------------5-------]-5--3-------0---3--------
---------------------]---------------------------]-------------------------

1. What'll you do when you get lonely,  

--4--4--4--4--4--4--4--4-]-4--4--4--4--4--4--4--4-]-4--4--4--X-------------
--5--5--5--5--5--5--5--4-]-4--4--4--4--4--4--4--5-]-5--5--5--X--5--X--7--X-
--6--6--6--6--6--6--6--5-]-5--5--5--5--5--5--5--4-]-4--4--4--X--5--X--7--X-
--6--6--6--6--6--6--6--4-]-6--6--6--6--6--6--6--6-]-6--6--6--X--5--X--7--X-
--4--4--4--4--4--4--4--6-]-6--6--6--6--6--6--6--4-]-4--4--4-----5--X--5--X-
-----------------------4-]-4--4--4--4--4--4--4----]------------------------

--------0-----0----------]
-----------3-----0-------]
1---0/1----1-----1-------]
2----------------2-------]
2------------------------]
0--------------------2---]


--2--2--2--X--------------]-0--0--0--X-------------]-2--2--2--X----------0-
--2--2--2--X--4--4--4---X-]-0--0--0--X--2--2--2----]-2--2--2--X--4-4-4---0-
--2--2--2--X--4--4--4---X-]-1--1--1--X--2--2--2----]-2--2--2--X--4-4-4---1-
--4--4--4--X--4--4--4---X-]-2--2--2--X--2--2--2----]-4--4--4--X--4-4-4---2-
--4--4--4-----2--2--2---X-]-2--2--2-----0--0--0----]-4--4--4-----2-2-2-----
--2--2--2-----------------]-0--0--0--------------2-]-2--2--2---------------

  Layla
------0--------------------]
------0---0----------------]
------1---1----------2-----]
--2------------------2-----]
--2------------0-----0-----]
--0------------------------]

    
---------------------]----------------------]-1----------------------------
----3--------3--3--X-]-5--5--5--3-----------]-3----------3--3--------------
-0--2---5----3--3--X-]-5--5--5--2---------2-]-2---5--3---3--3----X---------
-2--0---5----3--3--X-]-5--5--5--0---------0-]-0---5--3---3--3----X---------
--------3----1--1----]-3--3--3-------0--3---]-----3--1---1--1----X---------
---------------------]----------------------]------------------------------

---------------------------]
--5--5--5--3---------------]
--5--5--5--2---------2-----]
--5--5--5--0---------0-----]
--3--3--3------0---3-------]
---------------------------]

  
------1--------------]------------------------]--1-------------------------
------3------3--3--X-]-5--5--5---3------------]--3----------3--3--X--------
--(2)-2---5--3--3--X-]-5--5--5---2---------0--]--2--5--3----3--3--X--------
--(0)-0---5--3--3--X-]-5--5--5---0---------2--]--0--5--3----3--3--X--------
----------3--1--1----]-3--3--3-------0--3-----]-----3--1----1--1--X--------
---------------------]------------------------]----------------------------

---3--3--3-------------]
---5--5--5-------------]
---5--5--5--------5---.]
---5--5--5---7---------]
---3--3--3---0----3---.]
-----------------------]


Solo:
   /  /  /       /
--5--5--5-------5----------]-----------------------]-7/8--8-------8--8--8--
--6--6--6-------6----------]-----------------------]-9/10-10-9/10-10-10-10-
------------7-------7--5---]-----------------------]-----------------------
-------------------------7-]-6/5/3--5-3-----3------]-----------------------
---------------------------]------------5------5--X]-----------------------
---------------------------]-----------------------]-----------------------

------8--8-------8--8-------8-10-----------]-------------------10-10/12/10-
-9/10-10-10-9/10-10-10-9/10----------------]-------------10-13-------------
------------------------------------/---12-]-10----10-12-------------------
----------------------------------12-------]----12-------------------------
-------------------------------------------]-------------------------------
-------------------------------------------]-------------------------------

-----10---]-------------------------------]--------------------------------
--13----13]--10----10-10-10---11--10------]--------------------------------
----------]-----12---------------------12-]-10-9--7/9-7--5---7-------------
----------]-------------------------------]----------------7---------------
----------]-------------------------------]--------------------------------
----------]-------------------------------]--------------------------------

                                           /   /\/\/\
----------------------------------]------13--10----------------10----------
-5-6-5/6/5------------------------]------------------------13--------------
-----------7--5-------------------]----------------------------------------
-----------------7-6----5-3-5-3---]----------------------------------------
--------------------------------5-]--5-------------------------------------
----------------------------------]----------------------------------------

                               /\/\/\        /    /\/\
--12-10/12--10------------------]----10----13---10-------------------------
---------------13----10------10-]-------10-------------13------------------
-------------------------13-----]------------------------------------------
--------------------------------]------------------------------------------
--------------------------------]------------------------------------------
--------------------------------]------------------------------------------

              /
--15/13-15--13--------]--12-13/15--13-15--X--12--13------------------------
-------------------15-]----------------------------------------------------
----------------14----]----------------------------------------------------
----------------------]----------------------------------------------------
----------------------]----------------------------------------------------
----------------------]----------------------------------------------------

--10--------------------------------]-10-----------------------------------
-----13(10)-------13---/-10---------]-10------10----10---------------------
------------12-10----12-----12-10---]-10---9---9/10 9---9/10---------------
----------------------------------12]------------------------12------------
------------------------------------]--------------------------------------
------------------------------------]--------------------------------------

     Layla,
-------------------------]
-------------------------]
--5-----------/----------]
-----7-6--5--3-----------]
-------------------------]
-------------------------]

Out-chorus

          You got me on my knees. Layla, 
-----------------------]----------------------]-1--------------------------
----3----------3--3--X-]--5--5--5--3----------]-3-----------3--3-----------
----2--5---3---3--3--X-]--5--5--5--2--------0-]-2---5--3----3--3---X-------
----0--5---3---3--3--X-]--5--5--5--0--------2-]-0---5--3----3--3---X-------
-------3---1---1--1----]--3--3--3------0--3---]-----3--1----1--1---X-------
-----------------------]----------------------]----------------------------

    Layla,
-------------------------]
-5--5--5--3--------------]
-5--5--5--2---------2----]
-5--5--5--0---------0----]
-3--3--3-----0--3--------]
-------------------------]

              
-----------------------------]----------------------]-1--------------------
-------3------------3--3--X--]-5--5--5--3-----------]-3--------3-3---------
--(2)--2----5---3---3--3--X--]-5--5--5--2---------2-]-2--5--3--3-3--X------
--(0)--0----5---3---3--3--X--]-5--5--5--0---------0-]-0--5--3--3-3--X------
------------3---1---1--1-----]-3--3--3-------0--3---]----3--1--1-1--X------
-----------------------------]----------------------]----------------------

  
--------------------------]-1------------------]---------------------------
---5--5--5---3------------]-3-----------3---3--]--5------------------------
---5--5--5---2----------0-]-2---5--3----3---3--]--5------------------------
---5--5--5---0----------2-]-0---5--3----3---3--]--5------------------------
---3--3--3--------0--3----]-----3--1----1---1--]--3------------------------
--------------------------]--------------------]---------------------------


--------------------]---------------------------------------]---------------
-------5-6-5---5--6-]-8--6--5-6-5----5----------------------]---------------
--5--7--------------]-------------7----7--5-----------------]---------------
--------------------]------------------------7--6-5-3-----3-]-5/3-----------
--------------------]----------------------------------5----]------5--5--5--
--------------------]---------------------------------------]---------------
Comments