Clapton Eric - Tears In Heaven Complete Chords & Tabs

 

Clapton Eric Chords & Tabs

Version: 1 Type: Tab 0 ratings
1 star 2 stars 3 stars 4 stars 5 stars
comments

Tears In Heaven Complete Tab

   
#----------------------------------PLEASE NOTE---------------------------------#
#This file is the author's own work and represents their interpretation of the #
#song. You may only use this file for private study, scholarship, or research. #
#------------------------------------------------------------------------------##
From alt.guitar.tab Thu Oct 21 12:46:50 1993
From: jeroen@wsinis11.info.win.tue.nl (Jeroen Rik van Zutphen)
Subject: TAB: Tears in Heaven (Eric Clapton)

                 Eric Clapton: `Tears in Heaven'.


   D/F# E7sus4 E7    A                 
                                   
                                

          F#m/E      D/F#    A           E
+------------------+-------------0-----+------------------+
+--------2---2---2-+-3---3---2---2-----+-0---0---2---3----+
+--------2---2---2-+-2---2---2---2-----+-1---1---2---4----+
+------------------+-------------------+------------------+
+------------------+---------0-0-------+------------------+
+----2-----2-0-0--0+-2-2---2--------0--+---0---0---0---0/2+
            

 

   E     A/E  E7/5  F#m7               C#/E#
+-----------------+-2---2---2---2----+-1---1---1---1----+
+--0---0---2---3--+-2---2---2---2----+-2---2---2---2----+
+--1---1---2---4--+-2---2---2---2----+-1---1---1---1----+
+--2--------------+-2---2---2---2----+------------------+
+-----------------+-4---4---4---4----+------------------+
+----0---0---0---0+-2-2---2---2---0--+-1-1---1---1---1--+
 

    A7/E              F#7 F#7sus4 F#/A#   Bm7
+---0---0---0---0---+-------------------+------------------+
+---2---2---2---2---+-2-------------2---+-3---3---3---3----+
+---0---0---0---0---+-3-------4---------+-2---2---2---2----+
+-------------------+-2---2---2---------+------------------+
+-------------------+---------------1---+-2-2---2-2-2------+
+---0-0---0---0-----+-2-2---2---2-------+---------------0--+
                  
t

                       *to coda*
   D/E                  A              E/G#       F#m7          F#m7/E
+---------------------+-------------------------------+---------------------
+
+-------3---3---3-----+-------2/3/2-----5-------5---2-+--------2---2---2----
+
+-------2---2---2-----+-----2-------2---4-------4---2-+--------2---2---2----
+
+---------------------+-------------------------------+---------------------
+
+---------------------+-0-----------------------------+---------------------
+
+-------------0---0/2-+-----------------4---4-------2-+----2-----2-0-0---0--
+
      
     

   D/F# E7sus4 E7    A                   D/F# E7sus4 E7
+------------------+-------------------+----------------+
+--3---3---3---3---+-2---2---2----2----+-3---3---3---3--+
+--2---2---2---1---+-2---2---2----2----+-2---2---2---1--+
+------------------+-------------------+----------------+
+------------------+-0-0---0---0-------+----------------+
+--2-2---2-0---0---+----------------0/2+-2-2---2-0---0--+

    A                   C           G/B          Am           D/F#
+---------------------+-----------------------3---0-+-----------------------
+
+---2---2---2---2-----+--------1----------0-------1-+--1-----3---3------3---
+
+---2---2---2---2-----+-----0-----0-------0-------2-+-----2------2---2------
+
+---------------------+-----------------------------+-----------------------
+
+---0-0---0---0---0/2-+-3-------------2-----------0-+-----------------------
+
+---------------------+-----------------------------+------------2--------2-
+
                            Time can bring you down, 


    G        D/F#     Em    D/F#  G     C    G/B    Am
+-------------------+-----------------+-------0---------+
+-------3---3---3---+-----3---3---3---+-1---1---3-----1-+
+---0---0---2---2---+-0---0---2---0---+-----------------+
+-------------------+-----------------+-----------------+
+-------------------+-----------------+-3-3---3-2-2---0-+
+---3-3---3-2-2---2-+-0-0---0-2-2-3---+-----------------+
                                    

             D/F#           G       D/F#          E         A/E  E7/5
+-------------------------+-------------------------+-0---------------+
+-----1--------------3----+-3-----3-----3-----3-----+-0---0---1---3---+
+--------2--0-----2-------+-0-----0-----2--2--------+-0---0---2---4---+
+-------------------------+-------------------------+-2---------------+
+--0--------0-------------+-------------------------+-----------------+
+--------------2--2-----3-+-3--3-----3--2--2-----0--+-------0---0---0-+
    





  A           E/G#   F#m7  E     A/E  E7/5    F#m
+------------------------+-----------------+-----2---2---2---+
+-------2/3/2-----5----2-+-0---0---2---3---+-2---2---2---2---+
+-----2-------2---4----2-+-1---1---2---4---+-2---2---2---2---+
+------------------------+-----------------+-----------------+
+-0----------------------+-----------------+-----------------+
+-----------------4----2-+-0-0---0---0---0-+-2-2---2---2---2-+
                                    

  C#/E#                A7/E               F#7        G#m  F#/A#
+---1---1---1---1----+-0---0---0---0----+---------2-----------+
+---2---2---2---2----+-2---2---2---2----+-2---2-----------2---+
+---1---1---1---1----+-1---1---1---1----+-3---3-------4-------+
+--------------------+------------------+-2---2---------------+
+--------------------+------------------+-----------------1---+
+---1-1---1---1---1--+-0-0---0---0---0--+-2-------2---4-------+
                

   Bm7                  D/E                 A              E/G#  F#m7
+--------------------+--------------------+---------------------------+
+---3---3---3---3----+--3---3---3---------+-------2/3/2-----5---5---2-+
+---2---2---2---2----+--2---2---2---------+----2---------2--4---4---2-+
+--------------------+--------------------+---------------------------+
+---2-2---2---2------+--------------------+-0-------------------------+
+------------------0-+--------0-------0/2-+-----------------4-4-------+

  F#m7/E             D/F# E7sus4 E7    A
+------------------+-----------------+--------------------+
+------2---2---2---+-3---3---3-------+-2---2---2---2------+
+------2---2---2---+-2---2---2---7---+-2---2---2---2------+
+------------------+-------------6---+--------------------+
+------------------+-----------------+-0-0---0---0--------+
+---2----2-0-0---0-+-2-2---2-0---0---+----------------0/2-+

    A      E/G#          F#m7   F#m7/E      D/F#    A
+---------------0-----+-------------------+-----------------+
+-------5-----------2-+-------2---2---2---+-3---3---2---2---+
+---2-----------4---2-+-------2---2---2---+-2---2---2---2---+
+---------------------+-------------------+-----------------+
+---0-----------------+-------------------+---------0-0-----+
+-----------4-------2-+---2-----2-0-0---0-+-2-2---2-------0-+
          

   E    A/E   E7/5    A              E/G#  F#m7       F#m7/E
+-------------------+--------------------------+--------------------+
+---0---0---2---3---+-------2/3/2-----5---5--2-+-------2---2---2----+
+---1---1---2---4---+----2--------2---4---4--2-+-------2---2---2----+
+-------------------+--------------------------+--------------------+
+-------------------+-0------------------------+--------------------+
+---0-0---0---0---0-+-----------------4--------+---2-----2-0-0---0--+


   D/F#             A/E               E               A/E     E7/5
+-----------------------------------+---------------------------------+
+---3-------3-------2-------2-------+-0-------0-------2-------3-------+
+---2-------2-------2-------2-------+-1-------1-------2-------4-------+
+-----------------------------------+---------------------------------+
+-----------------------------------+---------------------------------+
+---2---2-------2---0---0-------0---+-0---0-------0-------0-------0---+
 

*coda*
  A           E/G#   F#m7         F#m7/E
+----------------------------+---------------------+
+-------2/3/2-----5---5----2-+--------2---2---2----+
+-----2-------2---4---4----2-+--------2---2---2----+
+----------------------------+---------------------+
+-0--------------------------+---------------------+
+-----------------4--------2-+-----2----2-0-0---0--+
                                        'Cause I

    Bm7                 D/E                 A             E/G#   F#m
+-------------------+---------------------+--------------------------+
+---3---3---3---3---+---3---3---3---------+--------2-3-2----5--5--5--+
+---2---2---2---2---+---2---2---2---------+-----2--------2--4--4--2--+
+-------------------+---------------------+--------------------------+
+---2-2---2---2-----+---------------------+-0------------------------+
+-----------------0-+---------0-------0/2-+-----------------4-----2--+
  know    I don't belong        here in hea-ven.

         F#m/E        D/F# E7sus4 E7    A
+-------------------+-----------------+-------------------------------------
+
+-------2---2---2---+-3---3---3---3---+----------2--3--2/3/2----------5--5--
+
+-------2---2---2---+-2---2---2---1---+-------2--------------4--2-4/6-------
+
+-------------------+-----------------+----2--------------------------------
+
+-------------------+-----------------+-0-----------------------------------
+
+-----2---2-0-0---0-+-2-2---2-0---0---+-------------------------------------
+



From: fact1@gipsy22.cs.uni-sb.de (Detlef Anton)


Tears In Heaven (Eric Clapton)



Fingerpick it [2 beats per pattern].  
There are a couple of places where achord
only gets 1 beat -Just squeeze the chord  
pluck the 4 strings  simultaneously.


Finger both the E/G# and the C#/E# chords in a open D chord shape
with the thumb wrapped around to the 6th string.  Like this:

      C#/E#                     The E/G# is the same thing played at the
  --X-X------                   4th fret
  T ] ] 1 ] 2
  -----------
  ] ] ] ] 3 ]
>Chorus:
>] F#m      ]  C#/E#   ] Em      ] F#   ]
>  I must be strong     and carry on

The Em sounds much better if you add a C# with your pinky
(2nd fret at the B string)
==========================================================

Version 2
Tears In Heaven (Eric Clapton)

Below are my attempt to reproduce the two main riffs in Tears
of Heaven off Eric Clapton's unplugged album. There is really
only one figuring which is a reach which is the A to Esus2.

     ___________
     ]_]_]_]_]_]
     ]_]_1_1_1_1
     ]_]_]_]_]_]
     2_]_]_3_]_]
     ] ] ] ] 4 ]

Play the A as a partial barre  add other three fingers to construct the Esus2.

Tears In Heaven (Eric Clapton)

Lick 1: (The Verse)

         A     Esus2  F#m    F#m/E      D     A        E
E ---------------------------------------------------------------------
B ----------2---5-----2---------2---------3-3-2-02---------------------
G ------------2-4-------2-------2-2-------2--------2-------1---2---4---
D ----------2-----2---4---4---------4---0-----2------2-----2-----------
A --------0-----------------4---------4-------0----------2---2-4---5---
E --0-2-4-------4---0-2-------0------------------------0---------0---0-

Would you know my name...

         A   Esus2/G# F#m    F#m/E      D     A        E
E ----------------2-----------------------------------------------------
B ------------2-----5-----------------------3-3-2-0---------------------
G --------------2-------2-----------2-----2-----2----2-------1---2---4--
D ----------2---------2-----4---------2-0-------2------2-----2----------
A --------0-------------------4----4------------0----------2---2-4---5--
E --0-2-4---------4-----2--------0-----------------------0---------0---0

   F#m       C#/F    Em/G          F#               Bm       E
E ---------------------------------------------------------------------
B ---------0--------------------------------0---2----3-----------------
G -----2-2---1------------0-0-2-----3----------------4-4-4---1---------
D -----4-----3-3----------2---------4-4--------------4-----4-2---------
A ---4-----------4------2-----------4---4------------2-------2---------
E -2-------2-1-----1--3-------------2-----2---2---2----------0---------


Lick 2:

         C       G   F                     Em    G
E -----------0-0-------------------------------------------------------
B ---------------3---1-------1---3-0-----3-------0---------------------
G ---------0-------0---2-----2-----0---2---0-0-2-----------------------
D -----------------------2-----0-----0-----2---------------------------
A -0-2-3-3-------2---0-----0---------------2---------------------------
E ---------------------------2-----3---2---0---2-3---------------------

Time will bend your knees...

==========================================================
                                                   Version 3
                                              Most detailed

            "Tears In Heaven" (Unplugged)
 Intro:
  H     HP
 --]----------------]----------------]----------------]----------------]
 --]----232-5---5-2-]---2---2----2---]3---3---3---3---]2---2---2---2---]
 --]-------24---4-2-]---2---2----2---]2---2---2---1---]2---2---2---2---]
 --]--2-------------]----------------]----------------]----------------]
 --]0---------------]----------------]----------------]0-0---0---0---0-]
 02]--------4-4---2-]-2---2-0--0---0-]2-2---2-0---0---]----------------]

                    ]---5/75---------]
        2nd guitar  ]-------5/75---5-]
        part        ]-----------4/6--]
`                    ]----------------]
                    ]----------------]
  H     HP                                    H
 --]----------------]----------------]------------0---]----------------]
 --]----232-5---5-2-]---2---2----2---]3---3---2-3---0-]--0---2----3----]
 --]-------24---4-2-]---2---2----2---]2---2---2-----1-]--1---2----4----]
 --]--2-------------]----------------]0-0---0---------]----------------]
 --]0---------------]----------------]----------------]--------4/5-----]
 02]--------4-4---2-]-2---2-0--0---0-]--------------0-]0---0-----------]
  

                                           H
                    ]---2-4-45--4-2-0]
        2nd guitar  ]----------------]
        part        ]----------------]
                    ]----------------]
                    ]----------------]
                    ]----------------]
        HP                                    H
   ]----------------]----------------]------------0---]----------------]
   ]2---232-5---5-2-]---2---2----2---]3---3---2-3---0-]--0---2----3----]
   ]2------24---4-2-]---2---2----2---]2---2---2-----1-]--1---2----4----]
   ]----------------]----------------]0-0---0---------]----------------]
   ]--0-------------]----------------]----------------]--------4/5-----]
   ]--------4-4---2-]-2---2-0--0---0-]--------------0-]0---0-----------]
    

   ]----2-----2-----]----1-----1-----]----0-----0-----]----------------]
   ]--2-----2-----2-]--2-----2-----2-]--3-----3-----3-]----------------]
   ]--2-----2-----2-]--1-----1-----1-]--0-----0-----0-]3---3----4---6--]
   ]----------------]----------------]----------------]4---4----4---6--]
   ]----------------]----------------]----------------]----------------]
   ]2-----2-----2---]1-----1-----1---]0-----0-----0---]--2---2/4-4/6---]
     

   ]----------------]----------------]
   ]----3-----3---3-]3-3---3---------]
   ]----2-----2---2-]2-2---2---------]
   ]--4-----4-----4-]2-2---2---------]
   ]2-----2-----2---]----------------]
   ]----------------]----------------]
    know I don't belong here in heaven  .........

   Before the next verse the part of the 2nd guitar goes like this:
[ Tab from: http://www.guitartabs.cc/tabs/c/clapton_eric/tears_in_heaven_complete_tab.html ]
    H H HP P
   ]----------------]
   ]----232---------]
   ]--24---42-------]
   ]24-------42-----]
   ]----------------]
   ]----------------]

   Bridge:

 --]----------------]--------2---2---]----------------]--------------]
 --]----1-------1---]----1---3---3--2]----2-------2---]----2--1--1---]
 --]----0-------0---]----0---2---2--0]----0-------0---]----0--0--0---]
 --]--2-------2-----]--2-----0-0-0--0]----0-----0-----]--0----2--2---]
 02]3-----3-2-----2-]0---------------]----------------]--------------]
 --]----------------]---------------3]--3---3-2-----2-]0------0--2---]
       Time can bring you down Time can bend your knees

   ]----------------]--------2---2---]----------------]--------------]
   ]----1-------1---]----1---3---3--2]----2---3---3---]0---0---2----3]
   ]----0-------0---]----0---2---2--0]----0---2---2---]3---3---2----4]
   ]--2-------2-----]--2-----0-0-0--0]----0-----------]--------------]
   ]3-----3-2-----2-]0---------------]----------------]----------4/5-]
   ]----------------]---------------3]--3---3-2-2---2-]0-0---0-------]
  



From: daishi@sat.t.u-tokyo.ac.jp (Daishi Harada)

solo guitar interpretation, so i added some notes probably where there
aren't any in the real song ... if you don't have a band behind you to
provide texture, you gotta make do :-)

daishi



e|---------|
B|---------|
G|---------|
D|---------|
A|---------|
E|-0--h2---|


* *Aintro* *

e|---------------------------------0---------------0---------------|
B|-----------------2h3p2-----------------------------------2-------|
G|---------2---------------2-------1---------------1-------2-------|
D|-----------------------------------------------------------------|
A|-0---------------------------------------------------------------|
E|---------------------------------4-------4---------------2-------|


e|-----------------------------------------------------------------|
B|-----------------2---------------2---------------2---------------|
G|-----------------2---------------2---------------2---------------|
D|-----------------------------------------------------------------|
A|-----------------------------------------------------------------|
E|---------2---------------2-------0-------0---------------0-------|

e|-----------------------------------------------------------------|
B|-3---------------3---------------3---------------3---------------|
G|-2---------------2---------------2---------------1---------------|
D|-----------------------------------------------------------------|
A|-----------------------------------------------------------------|
E|-2-------2---------------2-------0-------0-------0-------0-------|
(on 3., go to *C* after the above measure, and return to *A* afterwards)

e|-----------------------------------------------------------------|
B|-2---------------2---------------2---------------2---------------|
G|-2---------------2---------------2---------------2---------------|
D|-----------------------------------------------------------------|
A|-0-------0---------------0-------0-------0-----------------------|
E|---------------------------------------------------------0--h2---|


* *A* *

e|---------------------------------0---------------0---------------|
B|-----------------2h3p2-----------------------------------2-------|
G|---------2---------------2-------1---------------1-------2-------|
D|-----------------------------------------------------------------|
A|-0---------------------------------------------------------------|
E|---------------------------------4-------4---------------2-------|


e|-----------------------------------------------------------------|
B|-----------------2---------------2---------------2---------------|
G|-----------------2---------------2---------------2---------------|
D|-----------------------------------------------------------------|
A|-----------------------------------------------------------------|
E|---------2---------------2-------0-------0---------------0-------|

e|-----------------------------------------------------------------|
B|-3---------------3---------------2---------------2---------------|
G|-2---------------2---------------2---------------2---------------|
D|-----------------------------------------------------------------|
A|-----------------------------------------------------------------|
E|-2-------2---------------2-------0-------0---------------0-------|
1.          
2.          
4.       

e|-----------------------------------------------------------------|
B|-0---------------0---------------2---------------3---------------|
G|-1---------------1---------------2---------------4---------------|
D|-----------------------------------------------------------------|
A|-----------------------------------------------------------------|
E|-0-------0---------------0---------------0---------------0-------|

e|---------------------------------0---------------0---------------|
B|-2---------------2h3p2-----------------------------------2-------|
G|-2-----------------------2-------1---------------1-------2-------|
D|-----------------------------------------------------------------|
A|-0-------0-------------------------------------------------------|
E|---------------------------------4-------4---------------2-------|
1.             
2.        
4.         

e|-----------------------------------------------------------------|
B|-----------------2---------------2---------------2---------------|
G|-----------------2---------------2---------------2---------------|
D|-----------------------------------------------------------------|
A|-----------------------------------------------------------------|
E|---------2---------------2-------0-------0---------------0-------|

e|-----------------------------------------------------------------|
B|-3---------------3---------------2---------------2---------------|
G|-2---------------2---------------2---------------2---------------|
D|-----------------------------------------------------------------|
A|-----------------------------------------------------------------|
E|-2-------2---------------2-------0-------0---------------0-------|
1.           
2.         
4.        

e|-----------------------------------------------------------------|
B|-0---------------0---------------2---------------3---------------|
G|-1---------------1---------------2---------------4---------------|
D|-----------------------------------------------------------------|
A|-----------------------------------------------------------------|
E|-0-------0---------------0---------------0---------------0-------|


* *B* *

e|-----------------2-------------------------------2---------------|
B|---------2---------------2---------------2---------------2-------|
G|-2-------------------------------2-------------------------------|
D|-----------------------------------------------------------------|
A|-----------------------------------------------------------------|
E|-2-------------------------------2-------------------------------|
1.                         I       must            be      str-
2.                  
3.                  
4.                      

e|-----------------1-------------------------------1---------------|
B|---------2---------------2---------------2---------------2-------|
G|-1-------------------------------1-------------------------------|
D|-----------------------------------------------------------------|
A|-----------------------------------------------------------------|
E|-1-------------------------------1-------------------------------|
1. ong


e|-----------------0-------------------------------0---------------|
B|---------0---------------0---------------0---------------0-------|
G|-0-------------------------------0-------------------------------|
D|-----------------------------------------------------------------|
A|-----------------------------------------------------------------|
E|-0-------------------------------0-------------------------------|
1.                         and     car-                                         

e|-----------------2-------------------------------2---------------|
B|---------2---------------2---------------2---------------2-------|
G|-3-------------------------------3-------------------------------|
D|-----------------------------------------------------------------|
A|-----------------------------------------------------------------|
E|-2-------------------------------2-------------------------------|
1. on                   

e|-----------------------------------------------------------------|
B|-3---------------3---------------3---------------3---------------|
G|-2---------------2---------------2---------------2---------------|
D|-----------------------------------------------------------------|
A|-----------------------------------------------------------------|
E|-2-------2---------------2-------2-------2---------------2-------|
1.             
2.             
3.           
4.              

e|-----------------------------------------------------------------|
B|---------3-------3---------------3-------------------------------|
G|---------2-------2---------------2-------------------------------|
D|-----------------------------------------------------------------|
A|-----------------------------------------------------------------|
E|-0-------------------------------------------------------0--h2---

(return to *Aintro* after the above measure, except on 4.,
 in which case go to *Coda*)


* *C* *

e|-----------------------------------------------------------------|
B|-2---------------2---------------2---------------2---------------|
G|-2---------------2---------------2---------------2---------------|
D|-----------------------------------------------------------------|
A|-0-------0---------------0-------0-------0---------------0--h2---|
E|-----------------------------------------------------------------|

e|-----------------0-------------------------------0-------0-------|
B|-----------------1-------------------------------0-------1-------|
G|---------0---------------0---------------0---------------2-------|
D|-----------------------------------------------------------------|
A|-3-------------------------------2-----------------------0-------|
E|-----------------------------------------------------------------|
3.     

e|-----------------0---------------2---------------2-------3-------|
B|-----------------1---------------3---------------3-------0-------|
G|-----------------2---------------2---------------2-------0-------|
D|-----------------------------------------------------------------|
A|---------0---------------0---------------------------------------|
E|---------------------------------2-------2---------------3-------|
3.        

e|-----------------3-----------------------------------------------|
B|-----------------0---------------3---------------3-------0-------|
G|-----------------0---------------2---------------2-------0-------|
D|-----------------------------------------------------------------|
A|-----------------------------------------------------------------|
E|---------3---------------3-------2-------2---------------0-------|

e|-----------------------------------------------------------------|
B|-----------------0---------------3---------------3---------------|
G|-----------------0---------------2---------------0---------------|
D|-----------------------------------------------------------------|
A|-----------------------------------------------------------------|
E|---------0---------------0-------2-------2-------3-------3-------|

e|-----------------0-------------------------------0-------0-------|
B|-----------------1-------------------------------0-------1-------|
G|---------0---------------0---------------0---------------2-------|
D|-----------------------------------------------------------------|
A|-3-------------------------------2-----------------------0-------|
E|-----------------------------------------------------------------|
3.        

e|-----------------0---------------2---------------2-------3-------|
B|-----------------1---------------3---------------3-------0-------|
G|-----------------2---------------2---------------2-------0-------|
D|-----------------------------------------------------------------|
A|---------0---------------0---------------------------------------|
E|---------------------------------2-------2---------------3-------|
3.          

e|-----------------3---------------------------------------0-------|
B|-----------------0---------------3---------------3-------0-------|
G|-----------------0---------------2---------------2-------1-------|
D|-----------------------------------------------------------------|
A|-----------------------------------------------------------------|
E|---------3---------------3-------2-------2---------------0-------|
3.                               

e|-----------------------------------------------------------------|
B|-----------------------------------------------------------------|
G|-----------------------------------------------------------------|
D|-----------------------------------------------------------------|
A|-----------------------------------------------------------------|
E|---------------------------------------------------------0--h2---|
(return to *A*, still on 3.)


* *Coda* *
e|---------------------------------0---------------0---------------|
B|-----------------2h3p2-----------------------------------2-------|
G|---------2---------------2-------1---------------1-------2-------|
D|-----------------------------------------------------------------|
A|-0---------------------------------------------------------------|
E|---------------------------------4-------4---------------2-------|

e|-----------------------------------------------------------------|
B|-----------------2---------------2---------------2---------------|
G|-----------------2---------------2---------------2---------------|
D|-----------------------------------------------------------------|
A|-----------------------------------------------------------------|
E|---------2---------------2-------0-------0-----------------------|
4.                                                         Cause I

e|-----------------------------------------------------------------|
B|-3---------------3---------------3---------------3---------------|
G|-2---------------2---------------2---------------2---------------|
D|-----------------------------------------------------------------|
A|-----------------------------------------------------------------|
E|-2-------2---------------2-------2-------2---------------2-------|
4. know                    I       don't           be-     lo-

e|-----------------------------------------------------------------|
B|---------3-------3---------------3-------------------------------|
G|---------2-------2---------------2-------------------------------|
D|-----------------------------------------------------------------|
A|-----------------------------------------------------------------|
E|-0-------------------------------------------------------0--h2---|
4. ng                                      here   in      hea-

e|---------------------------------0---------------0---------------|
B|-----------------2h3p2-----------------------------------2-------|
G|---------2---------------2-------1---------------1-------2-------|
D|-----------------------------------------------------------------|
A|-0---------------------------------------------------------------|
E|---------------------------------4-------4---------------2-------|
4. ven   (rit.)

e|-----------------------------------------------------------------|
B|-----------------2---------------2---------------2---------------|
G|-----------------2---------------2---------------2---------------|
D|-----------------------------------------------------------------|
A|-----------------------------------------------------------------|
E|---------2---------------2-------0-------0-----------------------|

e|-----------------------------------------------------------------|
B|-3---------------3---------------3---------------3---------------|
G|-2---------------2---------------2---------------1---------------|
D|-----------------------------------------------------------------|
A|-----------------------------------------------------------------|
E|-2-------2---------------2-------0-------0-------0-------0-------|

e|-----------------------------------------------------------------|
B|----2------------------------------------------------------------|
G|---2-------------------------------------------------------------|
D|--2--------------------------------------------------------------|
A|-0---------------------------------------------------------------|
E|------------------------------------------------------------
Comments