Clapton Eric - Pretty Blue Eyes Chords & Tabs

 

Pretty Blue Eyes Chords & Tabs

Clapton Eric Chords & Tabs

Version: 2 Type: Tab 0 ratings
1 star 2 stars 3 stars 4 stars 5 stars
comments

Pretty Blue Eyes Tab

   
RETTY BLUE EYES
Eric Clapton

from the album "There's One in Every Crowd" (1975)


transcribed by Steve Garner (s_garner@hotmail.com)


CHORDS USED:    A  = x02220     E7 = 022130
                D  = xx0232     Bm = x24432
                G  = 320033   

INTRO:
(listen to recording to get exact strumming pattern)

             A                                  A
|----------0-0-0--0-0-0--0-0------------0-0-0--0-0-0-0-0---------|
|----------2-2-2--2-2-2--2-2------------2-2-2--2-2-2-2-2---------|
|----------2-2-2--2-2-2--2-2------------2-2-2--2-2-2-2-2---------|
|----------2-2-2--2-2-2--2-2------------2-2-2--2-2-2-2-2---------|
|------0---0-0-0--0-0-0--0-0--------0---0-0-0--0-0-0-0-0---------|
|--0-2-------------------------0-2--------------------------0-2--|


MAIN RHYTHM FIGURE:
(listen to recording to get exact strumming pattern)
[ Tab from: http://www.guitartabs.cc/tabs/c/clapton_eric/pretty_blue_eyes_tab_ver_2.html ]
 Gtr.I (rhythm)
    A          E7                               A
|---0--0-0-0---0--0-0--0----0-0--0-0---0--0-0-0-0------------------|
|---2--2-2-2---3--3-3--3----3-3--3-3---2--2-2-2-2------------------|
|---2--2-2-2---1--1-1--1----1-1--1-1---2--2-2-2-2------------------|
|---2--2-2-2---2--2-2--2----2-2--2-2---2--2-2-2-2------------------|
|---0--0-0-0---2--2-2--2----2-2--2-2---0--0-0-0-0------------------|
|--------------0--0-0--0----0-0--0-0-------------------------------|
|                                                                  |
|Gtr.II (lead)                                                     |
|------------------------------------------------------------------|
|------------------------------------------------------------------|
|------------------------------------------------------------------|
|--9b(10)r9--7----------------------7--9-----7---------------------|
|---------------9--7-------7--7--9--------9------------------------|
|------------------------------------------------------------------|


HARMONY VOCALS SECTION:

  D           Bm   G           A   D          Bm   G             A
|---------------|---------------|---------------|-----------------|
|-7--5--3-------|----------7--5-|-7--5--3-------|----5--7--10--10-|
|-7--6--4--2--4-|-4--6--7--7--6-|-7--6--4--2--4-|-7--6--7---9---9-|
|----------4--5-|-5--7--7-------|----------4--5-|-7---------------|
|---------------|---------------|---------------|-----------------|
|---------------|---------------|---------------|-----------------|

 D           Bm   G           A   D          Bm   G             A
|---------------|---------------|---------------|-----------------|
|-7--5--3-------|----------7--5-|-7--5--3-------|----5--7--12--10-|
|-7--6--4--2--4-|-4--6--7--7--6-|-7--6--4--2--4-|-7--6--7--11---9-|
|----------4--5-|-5--7--7-------|----------4--5-|-7---------------|
|---------------|---------------|---------------|-----------------|
|---------------|---------------|---------------|-----------------|

                                           


-------------------------------------------------------

PERFORMANCE NOTES:

The main rhythm figure ends abruptly just before the switch
to the harmony vocals section. Listen to the recording to hear
exactly where you should stop.

In the tab for the lead guitar during the harmony section,
the bottom notes are optional. You can play them to add a fuller
sound to the guitar part. Listen to the recording to hear where
these bottom notes would sound best added in.

--------------------------------------------------------

comments, corrections: s_garner@hotmail.com
Comments