Clapton Eric - Old Love Solo Chords & Tabs

 

Old Love Solo Chords & Tabs

Clapton Eric Chords & Tabs

Version: 1 Type: Tab 1 rating
1 star 2 stars 3 stars 4 stars 5 stars
comments

Old Love Solo Tab

   
#----------------------------------PLEASE NOTE---------------------------------#
#This file is the author's own work and represents their interpretation of the #
#song. You may only use this file for private study, scholarship, or research. #
#------------------------------------------------------------------------------#

   From: 
        "Mats Fjäll" 

Hi 

Here's the tab for Old Love including one of my absoulute 
favourite guitarsolos!
I wrote this one in notepad, so it's best if you run it there too.
Use Lucida Console, size 8.It will look ok then.

All Righty then, here we go!;

Old Love

The main riff goes something like this:

                 Am Dm7  G7sus4 G
e-----------------5--5-5--3-3---3-----||
B-----------------5--6-6--3-3---3----*||
G-----------------5--5-5--5-5---4-----||
D-----------------7--7-7--3-3---5----*||
A------0-3-0----0---------5-5---5-----||
E--0-3-------3------------3-3---3-----||

Now the SOLO:
(' in the beginning means bend 1/4 step)

     Am                  Dm7

e----12--12'----------------------------------------------|
B----13--13'---------------------------12-13-12--------12-|
G----------------14-------14-14~~~~-------------(14)------|
D----------------------14---------------------------------|
A---------------------------------------------------------|
E---------------------------------------------------------|

G7sus4                 G

e--------------------------------------------------------------------|
B--13--12h13p12-----12-12~~~12-13-15--13h15p13-12-13--12h13p12----12-|
G----------------14--------------------------------------------14----|
D--------------------------------------------------------------------|
A--------------------------------------------------------------------|
E--------------------------------------------------------------------|

 Am                  Dm7

e---~~~~~~--------------12h10p12----10----|
B-12-12--------------------------13----13-|
G----------14-14-14\----------------------|
D-----------------------------------------|
A-----------------------------------------|
E-----------------------------------------|

 G7sus4                                 G

e---------------------------------------------------7-8-7h8p7-----7-|
B-10-13-10------10-------------------------------10------------10---|
G----------(12)----12/14--10--12-12-12-12/(7)---9-------------------|
D-------------------------------------------------------------------|
A-------------------------------------------------------------------|
E-------------------------------------------------------------------|

 Am                               Dm7

e------------------------------------------------------------|
B-10--8------------------------------------------------------|
G-------9-7-9-7--5h7p5----5-4--------------------------------|
D----------------------7-------7-5---------------------------|
A----------------------------------7-6-5-3---3-5-5/7--5-7----|
E------------------------------------------5---------------5-|

 G7sus4        G                Am  Dm7      

e-----------------------------|-8-8--8----8-10-10/12--10--12-|
B--------------------8-8--888-|-8-8-----10-------------------|
G--------------5-7/9-9-9--999-|-9-9--------------------------|
D----------5-7----------------|------------------------------|
A-3-5-5/7---------------------|------------------------------|
E-----------------------------|------------------------------|

 G7sus4       G                          Am                   Dm7
               ~~~~~~
e-15-12----12-12-12--12-----------------|--------------------------------~~~~---------|
B-------15---------------15-13-12----12-|---------12-13-13-12----12-12-12----13-15-13-|
G---------------------------------14----|-14----14------------14----------------------|
D---------------------------------------|---(14)--------------------------------------|
A---------------------------------------|---------------------------------------------|
E---------------------------------------|---------------------------------------------|

 G7sus4                 G                 
[ Tab from: http://www.guitartabs.cc/tabs/c/clapton_eric/old_love_solo_tab.html ]
e--------------------------------------------------------------------------|
B-15--15/17--15-17-15~~~15-17--15h17p15-13-15-17-15--------15-17--15h17p15-|
G---------------------------------------------------17-17------------------|
D--------------------------------------------------------------------------|
A--------------------------------------------------------------------------|
E--------------------------------------------------------------------------|

 Am                                             Dm7

e--------------------------------------------------------------------------------------|
B----15-17-15h17p15----15-17-15h17p15----15-17-15h17p15----15--------------------------|
G-17----------------17----------------17----------------17----17--14-14-14--14-14-14-\-|
D--------------------------------------------------------------------------------------|
A--------------------------------------------------------------------------------------|
E--------------------------------------------------------------------------------------|

 G7sus4     G                             Am               Dm7

e-------------------7-8-10-8h10p8----8-7-|-10-10-10-10-10\--8-8--8---7-7-7--5-5-|
B-----8-8---8---10----------------10-----|-12-12-12-12-12\-10-10-10--8-8-8--5-5-|
G-5/9-----9---9--------------------------|--------------------------------------|
D----------------------------------------|--------------------------------------|
A----------------------------------------|--------------------------------------|
E----------------------------------------|--------------------------------------|

 G7sus4        G

e--------------------------------|
B--------------------------------|
G-7-5-4--------------------------|
D-------7-5----------------------|
A-----------7-6-5~~~3-5-3h5p3----|
E------------------------------5-|

 F

e-----------------------------------------------|
B-----------------------------------------------|
G-----------------------------------------------|
D-----------------------------------------------|
A-3-5---3-5-5/6-5-3----3--5-3h5p3---3-----------|
E-----5--------------5------------5---5-3h5p3p0-|

 E7

e-----------------------------------------------|
B-----------------------------------------------|
G-----------------------------------------------|
D--~~~~~~~~~~--5-7-5h7p5---5----------------5-7-|
A-5/7-7-7-7--------------7---7\5-3--5-3-5/7-----|
E-----------------------------------------------|

 Am                    Am/maj7/G#

e-----------------------------------7-8-10----8----|
B--------------5---5-------8---8-10--------10---10-|
G-----4-5--5h7---7---7/9~~---9---------------------|
D-5-7----------------------------------------------|
A--------------------------------------------------|
E--------------------------------------------------|

 Am7/G                          Am6/F#

e-8-8-10--12-10h12p10----10---------------------15-12-----|
B---------------------13----13/15--13----13~~~~--------15-|
G-------------------------------------14------------------|
D---------------------------------------------------------|
A---------------------------------------------------------|
E---------------------------------------------------------|

 F                                          E7

e-12---------------------------------------|-12-12-12-12-12----------------12-12-|
B-----15-13-12--12-13-12----------12-13-15-|-15-15-15-15-15-15-13-13-12-12-13-13-|
G------------------------14----14----------|-------------------------------------|
D---------------------------14-------------|-------------------------------------|
A------------------------------------------|-------------------------------------|
E------------------------------------------|-------------------------------------|

 F                                           E7#9            N.C.
                                   ~~~~
e-12\--10-10-10-----7-9--7h8p7----7----(7)\-|---------------------------------||
B-13\--12-12-12--10-------------8-----------|---------------------------------||
G-------------------------------------------|---------------------------------||
D-------------------------------------------|---------------------------------||
A-------------------------------------------|------0-3-----0-2~~-----0-3-0----||
E-------------------------------------------|-0--3-----0-3-------0-3-------3--||


Chords

 Am                     

EADGBe
xx7555 
Comments