Clapton Eric - Old Love Chords & Tabs

 

Old Love Chords & Tabs

Clapton Eric Chords & Tabs

Version: 1 Type: Bass Tab 0 ratings
1 star 2 stars 3 stars 4 stars 5 stars
comments

Old Love Bass Tab

OLD LOVE by ERIC CLAPTON 
FROM THE ALBUM: CLAPTON UNPLUGGED.
TABBED BY MATT ENGLAND.  

This is a relaxed song that needs a bit of bass.  
My band and myself performed this for our college,
Portslade 6th form.  
Sean Palmer, Chris Bentall and I performed as Kashmir,
this was before 
we knew that there was a more famous Kashmir.

INTRO and POST CHORUS.
G/-------------------------------------------------------------------
D/-------------------------------------------------------------------
A/------------0---3---0--------0---0-----5---5--5--------------------
E/---0---3-----------------3---------------------------3---3--3------
[ Tab from: http://www.guitartabs.cc/tabs/c/clapton_eric/old_love_btab.html ]
VERSE
G/-------------------------------------------------------------------
D/-------------------------------------------------------------------
A/----------5--5---5-------------------------------------------------
E/---5---5---------------3--3---3------------------------------------

CHORUS
G/-------------------------------------------------------------------
D/----------------------------7-7--6-6-6--5-5--4-4-4-----------------
A--------------------------------------------------------------------
E/---1--1--1--1--0--0--0--0------------------------------------------

G/---------------------------------------7-7-7-7-7-------------------
D/---------------------------------------5-5-5-5-5-------------------
A/-------------------------------------------------------------------
E/---1--1--1--1--0--0--0--0--1--1--1--1------------------------------


Comments