Clapton Eric - My Fathers Eyes Chords & Tabs

 

My Fathers Eyes Chords & Tabs

Clapton Eric Chords & Tabs

Version: 1 Type: Tab 0 ratings
1 star 2 stars 3 stars 4 stars 5 stars
comments

My Fathers Eyes Tab

#----------------------------------PLEASE NOTE--------------------------------#
#This file is the author's own work and represents their interpretation of the#
#song. You may only use this file for private study, scholarship, or research.#
#-----------------------------------------------------------------------------#

Date: Mon, 30 Mar 1998 23:35:10 +0100
From: John Hellbom 
Subject: c/clapton_eric/my_fathers_eyes.tab


My father's eyes - Eric Clapton

Music & text Eric Clapton
Album: Pilgrim (1998)

Transcribed by John.H (jhellbom@hotmail.com)

INTRO:

  vibr.....................................................................
e -------------------------------------------------------------------------
b ------5-------5-4--5/7-5---------------5-------5-4--5/7-5----------------
g -1--4-----------------------------1--4--------------------4--2-----------
d ---------------------------------------------------------------6--4------
A --------------------------------------------------------------------7--6-
E -------------------------------------------------------------------------

e -------------------------------------------------------------------------
b ----------5-p-4--5-5----9--7-p-5---------5-p-4--5-5----------------------
g -4---/-6---------------------------6-\-4---------------4-p-6-7--4-p-6-7--
d -------------------------------------------------------------------------
A -------------------------------------------------------------------------
E -------------------------------------------------------------------------

e --------------|
b --------------|
g -6--4--6--/-8-|
d --------------|
A --------------|
E --------------|

VERSE 1:  
              

FILL 1:
e -------------|
b --------5-5--|
g -1-/-4-------|
d -------------|
A -------------|
E -------------|

(Gtr.2 plays intro, with a few minor changes)



FILL 2:
e -4----2-p-0---|
b ------------2-|
g --------------|
d --------------|
A --------------|
E --------------|



BRIDGE:
[ Tab from: http://www.guitartabs.cc/tabs/c/clapton_eric/my_fathers_eyes_tab.html ]
   let ring
e -7---------9----------------------7--5----5-------12-p-11-12-12--11--11-
b -------------5--5----9---9-p-7\5-------9-----5--------------------------
g ------------------------------------------------------------------------
d ------------------------------------------------------------------------
A ------------------------------------------------------------------------
E ------------------------------------------------------------------------

SOLO:

Gtr.1
e ---------12----12--11--12--12--12-11-12-p-14-12--12-p-11-12-12----------
b -9---12-----------------------------------------------------------------
g ------------------------------------------------------------------------
d ------------------------------------------------------------------------
A ------------------------------------------------------------------------
E ------------------------------------------------------------------------

Gtr.2
e -------------------------------16b--14-p-12--12-------------------------
b ------------------------------------------------------------------------
g ------------------------------------------------------------------------
d ------------------------------------------------------------------------
A ------------------------------------------------------------------------
E ------------------------------------------------------------------------

Gtr.1
e ------------------------------------------------------------------------
b --12---10---------------------------------------------------------------
g -----------13---11------------------------------------------------------
d --------------------14---11--14/16--------------------------------------
A ------------------------------------------------------------------------
E ------------------------------------------------------------------------

VERSE 3:

FILL 2:
  vibr...........
e -1-----/-----4-|
b ---------------|
g ---------------|
d ---------------|
A ---------------|
E ---------------|




I decided to post this tab, when I saw the other tab of 
"My father´s eyes". I hope you´ll think this one is better.
It was hard to transcribe it, but if you think it´s hard to play,
follow my ordinary advice.
        "-If you got the cd, listen to the song, and play!"

Enjoy! John.H (Visit http://user.tninet.se/~jax696n/ for more clapton tabs)

23:14 1998-03-30
Comments