Clapton Eric - Layla Unplugged Solo Chords & Tabs

 

Layla Unplugged Solo Chords & Tabs

Clapton Eric Chords & Tabs

Version: 1 Type: Tab 0 ratings
1 star 2 stars 3 stars 4 stars 5 stars
comments

Layla Unplugged Solo Tab

LAYLA UNPLUGGED SOLO

ERIC CLAPTON

Tempo: fast

Tip - download it, and listen carefully to it, before playing it.

-----------------------------------------|------------------------------------------------------|
-----------------------------------------|-------------------------8/10--8--10--10/13--10--13---|
-----------7--9--10--9--7--9--10--9--7---|---9--10--10/12--10--12-------------------------------|
-----7--7--------------------------------|------------------------------------------------------|
-----------------------------------------|------------------------------------------------------|
-----------------------------------------|------------------------------------------------------|

[ Tab from: http://www.guitartabs.cc/tabs/c/clapton_eric/layla_unplugged_solo_tab.html ]
---10--12--10------10---------------------------------------|-------------------|
---------------13------13--10--13------13-------------------|-------------------|
-----------------------------------12------12--10--12--10---|---9---10--9---7---|
------------------------------------------------------------|-------------------|
------------------------------------------------------------|-------------------|
------------------------------------------------------------|-------------------|


--------------------------------------------------------|-----------------|
--------------------------------------------------------|-----------------|
------7--9--10--9--7---5---7----------------------------|-----------------|
---7---------------------------5/3---3--0---3/5--3--0---|-----------------|
--------------------------------------------------------|---0----3----4---|
--------------------------------------------------------|-----------------|
Comments