Clapton Eric - Im Tore Down Chords & Tabs

 

Im Tore Down Chords & Tabs

Clapton Eric Chords & Tabs

Version: 1 Type: Tab 0 ratings
1 star 2 stars 3 stars 4 stars 5 stars
comments

Im Tore Down Tab

Im tore down by Eric clapton 

H=hammer-on P=pull-off  ^=bend
v=down bend
         
E -----------------  -------------------  -------------------
B -----------------  -------------------  --------------------
G -----------------  -------------------  ----55---33--------
D ------55--33-----  -----33----11------  -------------55(repeat)
A -------------55--  ----------------33-  -33-------------------
E --33-------------  -11----------------  --------------------

E ---------------------------------------------------------
B ---------------------------------------------------------
G -----55---33--------------------------------------------- 
D -----------------(repeat 3 more times)-----33-11-----(repeat
A --33---------55----------------------------------33-------
E ----------------------------------------11-----------------

E --------------------------------------------
B ---------------------------------------------
G -----55---33------------------------------------- 
D ---------------55--(repeat)------------------------------
A --33--------------------------------------------
E ----------------------------------------------

E --------------------------------------------
B --8------10---8------8--------------------------
G --8-H9---10---8H9----8H9------------------------------- 
D --8------10---8------8------------------------------
A --------------------------33--11---00---------------
E ----------------------------------------33------

(solo)
E --------8--------------11- -----13--13--13--13^1/2--------
B --8--10----/13--13--13---- --13---------------------------
G -------------------------- ------------------------------- 
D -------------------------- -------------------------------
A -------------------------- -------------------------------
E -------------------------- -------------------------------

E -11------------- -----------11--13--13^1/2--11----------11---
B -----13--13--10- ---10--13----------------------13--13------
G ---------------- ------------------------------------------- 
D ---------------- -------------------------------------------
A ---------------- -------------------------------------------
E ---------------- -------------------------------------------

E --8--11---8--10------8-----------------------------
B -----------------10----8------------------------
G -------------------------10--9------------------ 
D --------------------------------10---------------
A ------------------------------------10--8--7------
E ----------------------------------------------
[ Tab from: http://www.guitartabs.cc/tabs/c/clapton_eric/im_tore_down_tab.html ]
E ---------8-----8-----------------------------------------------
B -------8----11---8------8-------------------------------------
G --10^---------------10^---10^bendupbedondown1/2stepandpull off 
D --------------------------------------------------------------
A -------------------------------------------------------------
E ---------------------------------------------------------------

E --------------8------8-----8^-----8^----8^-----8^-----8^
B ----8----11^-----11^----11-----11----11-----11-----11---
G -10------------------------------------------------------ 
D ---------------------------------------------------------
A ---------------------------------------------------------
E ----------------------------------------------------------

E -13^--11--------- -13^v^vP11---------11----------------------
B ----------13--10- -----------13--13-------------------------
G ----------------- ------------------------------------------
D ----------------- -----------------------------------------
A ----------------- ----------------------------------------
E ----------------- ---------------------------------------


E -18(tremolo)--18P15-----------------------------------------
B --------------------18--16---------16----------------------
G ---------------------------17--17--------------------------
D ----------------------------------------------------------
A ----------------------------------------------------------
E -----------------------------------------------------------

E -13^v-13--11--------11--------------------------------
B -------------13-13------13--13--10---------------------
G ------------------------------------------------------ 
D --------------------------------------------------------
A ------------------------------------------------------
E -------------------------------------------------------

E --------8------8----11^1/2--8H10P8---8-------------------
B ------8----11----8-----------------8---8-----8-------------
G --8H9------------------------------------10----8^1/2--- 
D ---------------------------------------------------------
A ------------------------------------------------------------
E -------------------------------------------------------

E -----------------------------------------------------
B -------------------------------------------------------
G ------------10----8^1/2----------------------------- 
D --10---10--------------------------------------------
A ----------------------------------------------------
E ------------------------------------------------------


Questions or Comments email Ibanez72@aol.com
Comments