Clapton Eric - Can't Hold Out Chords & Tabs

 

Can't Hold Out Chords & Tabs

Clapton Eric Chords & Tabs

Version: 1 Type: Tab 0 ratings
1 star 2 stars 3 stars 4 stars 5 stars
comments

Can't Hold Out Tab

   
#----------------------------------PLEASE NOTE---------------------------------#
#This file is the author's own work and represents their interpretation of the #
#song. You may only use this file for private study, scholarship, or research. #
#------------------------------------------------------------------------------##
I Can't Hold Out - Eric Clapton (written by Elmore James)



Main Riff.
    E
    , . , . , . , .   , . , . , . , .   , . , . , . , .   , . , . , . , .
||------------------|-----------------|-----------------|-----------------|
||------------------|-----------------|-----------------|-----------------|
||------------------|-----------------|-----------------|-----------------|
||--------2------(2)|-------2------(2)|-------2------(2)|-------2------(2)|
||--------2-----4---|-------2-----4---|-------2-----4---|-------2-----4---|
||--0---------------|-0---------------|-0---------------|-0---------------|
[ Tab from: http://www.guitartabs.cc/tabs/c/clapton_eric/cant_hold_out_tab.html ]
    A                                   E
    , . , . , . , .   , . , . , . , .   , . , . , . , .   , . , . , . , .
 |------------------|-----------------|-----------------|-----------------|
 |------------------|-----------------|-----------------|-----------------|
 |--------2------(2)|-------2------(2)|-----------------|-----------------|
 |--------2-----4---|-------2-----4---|-------2------(2)|-------2------(2)|
 |--0---------------|-0---------------|-------2-----4---|-------2-----4---|
 |------------------|-----------------|-0---------------|-0---------------|

    B                 A                 E
    , . , . , . , .   , . , . , . , .   , . , . , . , .   , . , . , . , .
 |------------------|-----------------|-----------------|-----------------||
 |------------------|-----------------|-----------------|-----------------||
 |------------------|-------2------(2)|-----------------|-----------------||
 |--------9---------|-------2-----4---|-------2------(2)|-------2------(2)||
 |--------9----(6)--|-0---------------|-------2-----4---|-------2-----4---||
 |--7---------------|-----------------|-0---------------|-0---------------||
Comments