Clapton Eric - Angelicas Dream Chords & Tabs

 

Angelicas Dream Chords & Tabs

Clapton Eric Chords & Tabs

Version: 1 Type: Tab 0 ratings
1 star 2 stars 3 stars 4 stars 5 stars
comments

Angelicas Dream Tab

   
ANGELICA’S DREAM
by T.D.F.
(Eric Clapton & Simon Climie)

from the album “Retail Therapy” (1997)



|--------0-----------0-----------0-----------0---------|
|------6---6-------6---6-------6---6-------6---6-------|
|----5-------5---5-------5---4-------4---4-------4-----|
|--0-----------0-----------0-----------0---------------|
|------------------------------------------------------|
|------------------------------------------------------|

|--------0-----------0-----------0-----------0---------|
|------6---6-------6---6-------6---6-------6---6-------|
|----5-------5---5-------5---4-------4---4-------4-----|
|--0-----------0-----------0-----------0---------------|
|------------------------------------------------------|
|------------------------------------------------------|

|------------------------------------------------------|
|--------5-----------5-----------3-----------3---------|
|------5---5-------5---5-------4---4-------4---4-------|
|----3-------3---3-------3---3-------3---3-------3-----|
|--0-----------0-----------0-----------0---------------|
|------------------------------------------------------|
[ Tab from: http://www.guitartabs.cc/tabs/c/clapton_eric/angelicas_dream_tab.html ]
|---------------------------------------|
|--------3-----------3------------1-----|
|------0---0-------0---0--------0---0---|
|----2-------2---2-------2----2---------|
|--0-----------0------------0-----------|
|---------------------------------------|

|------------------------------------------------------|
|--------5-----------5-----------3-----------3---------|
|------5---5-------5---5-------4---4-------4---4-------|
|----3-------3---3-------3---3-------3---3-------3-----|
|--0-----------0-----------0-----------0---------------|
|------------------------------------------------------|

|------------------------------------------------|
|--------3-----------3------------2------3---5---|
|------0---0-------0---0--------2---2------------|
|----2-------2---2-------2----2-------2----------|
|--0-----------0------------0--------------------|
|------------------------------------------------|



Play the whole thing twice through, then fade out while playing
the first line of tab. That’s all there is to it! A short but
sweet little acoustic instrumental piece.


comments, corrections: s_garner@hotmail.com
-------------------------------------------
Comments