Cky - We Wish You A Merry Christmas Chords & Tabs

 

We Wish You A Merry Christmas Chords & Tabs

Cky Chords & Tabs

Version: 1 Type: Tab 0 ratings
1 star 2 stars 3 stars 4 stars 5 stars
comments

We Wish You A Merry Christmas Tab

Band: CKY actually its Rake Yohn but who cares
Song: We Wish You A Merry Christmas (or sucky in this case)
Cd: Cky Vol. 1&2 (not sure though)
Tabbed By: Corbin lilbigtyma247@yahoo.com

Tuning: Standard 
Play this song with lots of distortion and heavy muting throughout some parts
[ Tab from: http://www.guitartabs.cc/tabs/c/cky/we_wish_you_a_merry_christmas_tab.html ]
E-------------------------------------------------------------------|
B-------------------------------------------------------------------|
G-------------------------------------------------------------------|
D-5/-10-10--12\6-9-7-7--7/12-12-14-12-10-5-5--9/14-14-15-14-12-10-10|
A-5/-10-10--12\6-9-7-7--7/12-12-14-12-10-5-5--9/14-14-15-14-12-10-10|
E-3/-8--8---10\8-7-5-5--5/10-10-12-10-8--7-7--7/12-12-13-12-10-8--8-|
"we wish you a sucky christmas we wish you a sh!tty christmas......."

E----------------------------------------------------------------|
B----------------------------------------------------------------|
G----------------------------------------------------------------|
D-5-----12------9------10----------------------------------------|
A-5-----12------9------10----------------------------------------|
E-3-----10------7------8-----------------------------------------|
let ring------------------|
"-and a boring new year.."

simple song play with lots of heavy distortion and muting should be right 
have fun with it...happy holidays im out
Comments