Cky - Way You Lived Chords & Tabs

 

Way You Lived Chords & Tabs

Cky Chords & Tabs

Version: 3 Type: Tab 0 ratings
1 star 2 stars 3 stars 4 stars 5 stars
comments

Way You Lived Tab

   
                                THE WAY YOU LIVED
                               As recorded by CKY
                  (From the 2005 Album AN ANSWER CAN BE FOUND)
Words by Deron Miller
Music by Deron Miller & Chad Ginsburg

Gtr I (D G C F A D) - 'Deron'
Gtr II (D G C F A D) - 'Chad'
Gtr III (D G C F A D) - 'Voice Guitar Effect'
Gtr IV (D G C F A D) - 'Chad (Solo)'

 Intro
  Q=147
  Bm/D     N.C.
 4/4
  Gtr I
   Q.    E E  E E  E   E  E  Q  E  E  Q
|--------------------|-------------------|
|--------------------|-------------------|
|-11----11-----------|-------------------|
|--9-----9------9-12-|-------------------|
|--9-----9-9-12------|----------9-12-12--|
|-10----10-----------|-9s10-10-----------|


  D        N.C.
   Q.    E E  E E  E   E  E  Q  E  E  Q
|--------------------|-------------------|
|--------------------|-------------------|
|-11----11-----------|-------------------|
|-12----12------9-12-|-------------------|
|--9-----9-9-12------|----------9-12-12--|
|-10----10-----------|-9s10-10-----------|


  $
  Bm/D     N.C.
   Q.    E E  E E  E   E  E  Q  E  E  Q
|--------------------|-------------------|
|--------------------|-------------------|
|-11----11-----------|-------------------|
|--9-----9------9-12-|-------------------|
|--9-----9-9-12------|----------9-12-12--|
|-10----10-----------|-9s10-10-----------|


  D        N.C.
   Q.    E E  E E  E   E  E  Q  E  E  Q
|--------------------|--------------------|
|--------------------|--------------------|
|-11----11-----------|--------------------|
|-12----12------9-12-|--------------------|
|--9-----9-9-12------|----------9-12-12---|
|-10----10-----------|-9s10-10------------|


   Verse
    Bm/D     N.C.
     Q.    E E  E E  E   E  E  Q  E  E  Q
||---------------------|-------------------|
||o--------------------|-------------------|
||---------------------|-------------------|
||---9-----9------9-12-|-------------------|
||o--9-----9-9-12------|----------9-12-12--|
||--10----10-----------|-9s10-10-----------|


  D        N.C.
   Q.    E E  E E  E   E  E  Q  E  E  Q   3x
|--------------------|--------------------||
|--------------------|-------------------o||
|-11----11-----------|--------------------||
|-12----12------9-12-|--------------------||
|--9-----9-9-12------|----------9-12-12--o||
|-10----10-----------|-9s10-10------------||


                                    Bm   N.C.
  E E E E E q  E   E E E E E E q    H     E E  Q
|----------------|----------------|---------------|
|----------------|----------------|---------------|
|----------------|----------------|---------------|
|---------5------|----------------|---------------|
|----------------|-------7-5-4----|-5----/9-7-----|
|-3-3-3-3---3--3s|=5-5-5-------5--|-7---------10--|


 Chorus
  N.C.                                                  Bm   N.C.
  E E E Q  E E E   E E E Q  E E E   E E E E  E  E E E   H      E E  Q
|----------------|----------------|-------------------|-----------------|
|----------------|----------------|-------------------|-----------------|
|----------------|----------------|-------6-(6)-------|-----------------|
|----------------|-----5-4--------|---7-----(7)-7-7-7-|-----------------|
|---4---7--4---4-|---2------5---5-|-------------------|-5-----/9-7------|
|-5---5------2---|-3----------3---|-5---5-------------|-7----------10---|
|
| Gtr II
| W                W                W                   H      E E  Q
|----------------|----------------|-------------------|-----------------|
|----------------|----------------|-------------------|-----------------|
|----------------|----------------|-------------------|------/11-9------|
|----------------|----------------|-------------------|------------12---|
|----------------|----------------|-------------------|-----------------|
|----------------|----------------|-------------------|-----------------|


                                                     Bm   N.C.
  E E E Q  E E E   E E E Q  E E E   E E E Q  E E E   H      E E  Q
|----------------|----------------|----------------|-----------------|
|----------------|----------------|----------------|-----------------|
|----------------|----------------|-------6--------|-----------------|
|----------------|-----5-4--------|---7------7-7-7-|-----------------|
|---4---7--4---4-|---2------5---5-|----------------|-5-----/9-7------|
|-5---5------2---|-3----------3---|-5---5----------|-7----------10---|
|
| W                W                W                H      E E  Q
|----------------|----------------|----------------|-----------------|
|----------------|----------------|----------------|-----------------|
|----------------|----------------|----------------|------/11-9------|
|----------------|----------------|----------------|------------12---|
|----------------|----------------|----------------|-----------------|
|----------------|----------------|----------------|-----------------|


                                                        Bm   N.C.
  E E E Q  E E E   E E E Q  E E E   E E E E  E  E E E   H      E E  Q
|----------------|----------------|-------------------|-----------------|
|----------------|----------------|-------------------|-----------------|
|----------------|----------------|-------6-(6)-------|-----------------|
|----------------|-----5-4--------|---7-----(7)-7-7-7-|-----------------|
|---4---7--4---4-|---2------5---5-|-------------------|-5-----/9-7------|
|-5---5------2---|-3----------3---|-5---5-------------|-7----------10---|
|
| W                W                W                   H      E E  Q
|----------------|----------------|-------------------|-----------------|
|----------------|----------------|-------------------|-----------------|
|----------------|----------------|-------------------|------/11-9------|
|----------------|----------------|-------------------|------------12---|
|----------------|----------------|-------------------|-----------------|
|----------------|----------------|-------------------|-----------------|


  E E E Q  E E E   E E E Q  E E E   E E E Q  E E E
|----------------|----------------|----------------|
|----------------|----------------|----------------|
|----------------|----------------|-------6--------|
|----------------|-----5-4--------|---7------7-7-7-|
|---4---7--4---4-|---2------5---5-|----------------|
|-5---5------2---|-3----------3---|-5---5----------|


 Breakdown
  A5 B5              A5           F#5   G5               A5  N.C.
   PM-----------------------------------------------------------------|
   E E  Q.      E  E E    Q.       E  E  E  Q    E  E  E  E  E E   E  E
|----------------------|-----------------------|------------------------|
|----------------------|-----------------------|------------------------|
|----------------------|-----------------------|-------------7-----6----|
|----------------------|-----------------------|---------------9------9-|
|--7-9----------9--9-7-|-----------4--4--5-----|----5--5--7-------------|
|--5-7----------7--7-5-|-----------2--2--3-----|----3--3--5-------------|
|
| Gtr III
|  E E  E  E  E E  E E    E  E  E  E  E  Q.      E  E  E  Q.       Q
|-10-9-10--9-10-9-10-9-|-10--9-----------------|------------------------|
|----------------------|-------12-10-12--------|------------------------|
|----------------------|----------------11-----|-9-11-12-11------(11)---|
|----------------------|-----------------------|------------------12----|
|----------------------|-----------------------|------------------------|
|----------------------|-----------------------|------------------------|

[ Tab from: http://www.guitartabs.cc/tabs/c/cky/way_you_lived_tab_ver_3.html ]
  A5 B5              A5           F#5  G5                   N.C.
   PM-------------------------------------------------------------|
   E  E  Q.     E  E E     Q.     E  E  E  Q      E E  E  E E E E E
|----------------------|----------------------|---------------------|
|----------------------|----------------------|---------------------|
|----------------------|----------------------|-------------7---6---|
|----------------------|----------------------|---------------9---9-|
|--7--9---------9--9-7-|----------4--4--5-----|-----5--5--7---------|
|--5--7---------7--7-5-|----------2--2--3-----|-----3--3--5---------|
|
|  E  Q.      Q    Q      +Q    Q    E  Q.        Q    H.
|----------------------|----------------------|---------------------|
|----------------------|----------------------|---------------------|
|----------------------|----------------------|-/12---11------------|
|------------12---11---|-(11)--12---11--------|---------------------|
|-12-14----------------|---------------14-----|---------------------|
|----------------------|----------------------|---------------------|


                                                        D.S.
    N.C.
    E E  E E  E  E E E   E E E E E E  E E    E  E E E E E E E
||---------------------|------------------|--------------------||
||o--------------------|------------------|-------------------o||
||---------------------|------------------|--------------------||
||-------4----4--7-----|-------4------4---|--4--7-----4--------||
||o--------------------|-7-4-5------------|-------------5-7-5-o||
||--5-7----7-------3-5-|---------5-7----7-|-------3-5----------||
|
|   Gtr II
|   E E  E E  E  E E E   E E E E E E  E E    E  E E E E E E E
||---------------------|------------------|--------------------||
||o-------------10-----|-------7----------|----10-----7---5---o||
||------11---11--------|-9-6-7-------11---|-11----------7---7--||
||--7-9----9-------5-7-|---------7-9----9-|-------5-7----------||
||o--------------------|------------------|-------------------o||
||---------------------|------------------|--------------------||


 Guitar Solo
  N.C.
  Gtr IV
   S  S S  S  S S  S  S  S  S  S S  S  S S  S
|---------------------------------------------|
|---------------------------------------------|
|-11-11---11-11---11-11----11-11---11-10---10-|
|---------------------------------------------|
|---------------------------------------------|
|---------------------------------------------|
|
| Gtr I
|  E    E     E    E     E     E    E    E
|---------------------------------------------|
|---------------------------------------------|
|---------------------------------------------|
|-------------4----------4-----7--------------|
|---------------------------------------------|
|--5----7----------7----------------3----5----|
|
| Gtr II
|  E    E     E    E     E     E    E    E
|---------------------------------------------|
|-----------------------------10--------------|
|------------11---------11--------------------|
|--7----9----------9----------------5----7----|
|---------------------------------------------|
|---------------------------------------------|


                                 PM  PM     PM   PM
   S S S S S S       S  S S S E  S S S S    S S  S S S E.   E S s S S E
|----------------------------------------|------------------------------|
|----------------------------------------|------------------------------|
|-10---9-9---8pb8.5==8r---7-x-7----------|------------------7-----9-x-7-|
|--------------------------------9-x-7-x-|--9-x--7-x-7-9------9-x-------|
|----------------------------------------|------------------------------|
|----------------------------------------|------------------------------|
|
|  E   E   E         E    E   E  E   E      E    E   E    E E E   E   E
|----------------------------------------|------------------------------|
|----------------------------------------|------------------------------|
|----------------------------------------|------------------------------|
|--------------------4-----------4-------|--4----7----------4-----------|
|--7---4---5-----------------------------|--------------------5---7---5-|
|-------------------------5---7------7---|-----------3----5-------------|
|
|  E   E   E         E    E   E  E   E      E    E   E    E E E   E   E
|----------------------------------------|------------------------------|
|--------------------7-------------------|------10----------7-----5-----|
|--9---6---7--------------------11-------|-11-----------------7-------7-|
|-------------------------7---9------9---|-----------5----7-------------|
|----------------------------------------|------------------------------|
|----------------------------------------|------------------------------|


           PM  PM   ~~~                     ~      PM            ~~
  E +E     S S S S  E.    E   S E   E E E E Q    E S S    S S  E H.
|---------------------------------|--------------------|-----------------------|
|---------------------------------|--------------------|-----------------------|
|-7-(7)b8-------------------------|--------------------|-----------------------|
|----------9-x-7-x--9-------------|-4------------------|-----------------------|
|-------------------------7---5-7-|---5----------5-----|--9-x--5---------------|
|---------------------------------|-----7-5-7------7-x-|---------7-------------|
|
| E  E     E   E    E   E   E   E   E E E E E E  E E      E    E E  E E E E E
|---------------------------------|--------------------|-----------------------|
|---------------------------------|--------------------|-----------------------|
|---------------------------------|--------------------|-----------------------|
|----------4--------4---7---------|-------4------4-----|--4----7------4--------|
|---------------------------------|-7-4-5--------------|----------------5-7-5--|
|-5--7---------7------------3---5-|---------5-7----7---|---------3--5----------|
|
| E  E     E   E    E   E   E   E   E E E E E E  E E      E    E E  E E E E E
|---------------------------------|--------------------|-----------------------|
|----------------------10---------|-------7------------|------10------7---5----|
|---------11-------11-------------|-9-6-7-------11-----|-11-------------7---7--|
|-7--9---------9------------5---7-|---------7-9----9---|---------5--7----------|
|---------------------------------|--------------------|-----------------------|
|---------------------------------|--------------------|-----------------------|


                                                        Bm      N.C.
                                                          ~~~~
    H        S.  +E..      +E.      H         H           W
|--------------------------------|--------------------|-------------------|
|-/12-------14--(14)b15r==(14)---|----------[14]------|-[12]--------------|
|--------------------------------|-14-----------------|-------------------|
|--------------------------------|--------------------|-------------------|
|--------------------------------|--------------------|-------------------|
|--------------------------------|--------------------|-------------------|
|
|   E E E E  E          q      E    E E E E   E  E q      H       E E  Q
|--------------------------------|--------------------|-------------------|
|--------------------------------|--------------------|-------------------|
|--------------------------------|--------------------|-------------------|
|------------5-------------------|--------------------|-------------------|
|--------------------------------|--------7---5--4----|---5------/9-7-----|
|---3-3-3-3-------------3------3s|==5-5-5----------5--|---7-----------10--|
|
|   W                               W                     H       E E  Q
|--------------------------------|--------------------|-------------------|
|--------------------------------|--------------------|-------------------|
|--------------------------------|--------------------|---------/11-9-----|
|--------------------------------|--------------------|---------------12--|
|--------------------------------|--------------------|-------------------|
|--------------------------------|--------------------|-------------------|


   Out-Chorus
    N.C.
    Gtr I
    E E E Q  E E E   E E E Q  E E E   E E E Q  E E E   H      E E  Q   3x
||-----------------|----------------|----------------|-----------------||
||o----------------|----------------|----------------|----------------o||
||-----------------|----------------|-------6--------|-----------------||
||-----------------|-----5-4--------|---7------7-7-7-|-----------------||
||o---4---7--4---4-|---2------5---5-|----------------|-5-----/9-7-----o||
||--5---5------2---|-3----------3---|-5---5----------|-7----------10---||
|
|   Gtr II
|   W                W                W                H      E E  Q   3x
||-----------------|----------------|----------------|-----------------||
||o----------------|----------------|----------------|----------------o||
||-----------------|----------------|----------------|------/11-9------||
||-----------------|----------------|----------------|------------12---||
||o----------------|----------------|----------------|----------------o||
||-----------------|----------------|----------------|-----------------||


                                                     Bm
  E E E Q  E E E   E E E Q  E E E   E E E Q  E E E   W
|----------------|----------------|----------------|------*|
|----------------|----------------|----------------|------*|
|----------------|----------------|-------6--------|------*|
|----------------|-----5-4--------|---7------7-7-7-|------*|
|---4---7--4---4-|---2------5---5-|----------------|-5----*|
|-5---5------2---|-3----------3---|-5---5----------|-7----*|
Comments