Cky - Way You Lived Chords & Tabs

 

Way You Lived Chords & Tabs

Cky Chords & Tabs

Version: 1 Type: Tab 0 ratings
1 star 2 stars 3 stars 4 stars 5 stars
comments

Way You Lived Tab

   
Band Cky
Song The Way You Lived (track2)
An Awnser Can Be Found
[ Tab from: http://www.guitartabs.cc/tabs/c/cky/way_you_lived_tab.html ]
D G C F A D
/-Slide
h-hammer on
0:00 - 0:35
d--------------------------------|
a--------------------------------|
f--7---------4-7-----------------|    x9
c--9--9--4/7-------------7-------|
g----------------4h5-5-5---0-----|
D--------------------------------|


"I Wont Always Be This Lonely"

d-------------------------|
a-------------------------|
f-------------------------|
c-------------------------|
g-----------------7--5--2-|
D-3--3-3-3-5-5-5----------|
Comments