Cky - Tripled Manic State Chords & Tabs

 

Tripled Manic State Chords & Tabs

Cky Chords & Tabs

Version: 1 Type: Tab 0 ratings
1 star 2 stars 3 stars 4 stars 5 stars
comments

Tripled Manic State Tab

   
Band: CKY
Album: An Answer Can Be Found
Song: Tripled Manic State
Tuning: i'm pretty sure they stuck with DGCFAD, but uh.. hell if i know
Notation:
 / = slide
 . = palm mute
 h = hammer on

[ Tab from: http://www.guitartabs.cc/tabs/c/cky/tripled_manic_state_tab.html ]
 Intro / Riff A
D|-------------------------------|
A|-----7---5-----7-------7-----5-|
F|-------------------------------| \
C|-------------------------------|  \
G|-4-4---4---4-4---4-4-4---4-4---|   \
D|-------------------------------|    \
                                        might be done with 2 guitars
  Intro / Riff B                        i've got no clue really
D|-------------------------------|    /
A|-----7---5-----7-------5h7-----|   /
F|---------------------------4h6-|  /
C|---------------------4---------| /
G|-4-4---4---4-4---4h7-----------|
D|-------------------------------|

  Chorus / Riff C
D|-----------------------------------|
A|-----------------------------------|
F|-----------------------------------|
C|-6-6-6-4-4-4-4-2-3-4-4-4-3-2-2-2---|
G|-4-4-4-0-2-2-2-0-1-2-2-2-1-0-0-0-6-|
D|---------------------------------4-|
   . . . . . . . . . . . . . . . . . palm mute

  Verse / Riff D
D|----------------------|
A|----------------------|
F|----8-8-8/4-4-4/6-6-6-|
C|-6--6-6-6/2-2-2/4-4-4-|
G|-4--------------------|
D|----------------------|

  Verse / Riff E
D|----------------------|
A|----------------------|
F|-6--8-8-8/4-4-4/6-6-6-|
C|-4--6-6-6/2-2-2/4-4-4-|
G|----------------------|
D|----------------------|



have fun trying to figure out the solo yourself ><
Comments