Cky - The Human Drive In Hi-fi Chords & Tabs

 

The Human Drive In Hi-fi Chords & Tabs

Cky Chords & Tabs

Version: 2 Type: Tab 0 ratings
1 star 2 stars 3 stars 4 stars 5 stars
comments

The Human Drive In Hi-fi Tab

ok this is basicly the other human drive in hi-fi
tab on this site with a few adjustments exept instead of tuning
your guitar a half step down just
play it one fret up...its way easier

Cky sound - I use an epiphone les paul
zakk wylde and a rouge amp and i have a $70
digi-tech effects procesor and if you take a
fuzzy ( not to heavy ) distortion and and a
negitive 12 semitone pitch shift ( you can get both from any effect processor )
it gives it almost the exact sound. On cky's "ask cky"
page on their site they said to get a boss metal zone pedal
and a few chorus pedals and adjust them to the right
tones it will work... Im not sure if it does but i
can tell you that im not gonna buy 5 chorus pedals! that would
be like $550 and im only 14 and dont have a job so I
stick to the cheaper way. Alot of people say the metal master
and danelectro black licorice pedals work nice too.

tuning: normal

----|
-10-|
----|
-7--|
----|
----|

Background
---------------------------------------------------|
-----------------------------------------/13---11--| hold
---------------------------------------------------|
--------7---------7-9----7-9----7------------------|
-9-9-10---10-9-10-----10-----10---10-9-7-----------|
---------------------------------------------------|
[ Tab from: http://www.guitartabs.cc/tabs/c/cky/the_human_drive_in_hi_fi_tab_ver_2.html ]
Main Riff
-------------------------------|
-------------------------------|
-------------------------------|
-------------------------------|
-------3-------6-0-5-0-3-0-5-0-|
-5-5-3---5-3-5-----------------|

Verse Riff
-----------------------------------------------------------------|
-----------------------------------------------------------------|
-----------------------------------------------------------------|
-----------------------------------------------------------------|
-----------------------------3-5---------------------------------|
-5--5-3-5-3-5-3-5----5-3-5-3-----5--5-3-5-3-5-3-5--5-3-5-3-5-3-5-|

chorus
------------------------------------|
------------------------------------|
------------------------------------|
------------------------------------|
-7--7-7--10-10-----5---7-5---5------|
-5--5-5--8--8--3-3---3-----8--------|

Verse Riff  (ending)
During the last part of the song you play the verse but with a new part
(This is only the newer part) I noticed the other tab doesnt have it
----------------------------------------------------------|
----------------------------------------------------------|
----------------------------------------------------------|
----------------------------------------------------------|
-------------------------------5-5-3-5-3-5-3-5--5-3-5-3-6-|
-5--5-3-5-3-5-3-5--5-3-5-3-5-3----------------------------|


Questions or comments email me at Cky2ksk8er2009@hotmail.com
or you can contact me on aim Adiosk8er2009
Comments